Cky - Far Cry Behind Chords & Tabs

 

Far Cry Behind Chords & Tabs

Cky Chords & Tabs

Version: 1 Type: Tab 0 ratings
1 star 2 stars 3 stars 4 stars 5 stars
comments

Far Cry Behind Tab

Foreign Objects-"Far Cry Behind" tab
Collected and Edited by: TransientBlur, Easter
Original Tab Credits: Jat, Spencer Reilley
Tuning: Standard, EADGBE

Riff 1
           (clean)
|--------------------------------|
|--------------------------------|
|--------------------------------|
|--------------------------------|
|-7-3-5-2-5-3-0-3--7-3-5-2-5-3-0-|
|--------------------------------|

Riff 2
          (distortion)
|--------------------------------|
|--------------------------------|
|--------------------------------|
|--------------------------------|
|-/5-2-3-0-3-0--/7-3-5-2-5-3-0-3-|
|--------------------------------|

Riff3 
|---------------------------------|
|---------------------------------|
|--------5------------------------|
|----7-------7-5--7-5----7-5------|
|---------------------7------5----|
|---------------------------------|

 Riff 4A                   Riff 4B
|-------3-----------------|-------3---------------------------|
|--5---------5-3--5-3-----|--5---------5-3--33-5----3-5-------|
|-------------------------|-----------------------------------|
|----------------------5--|-----------------------5------5----|
|-------------------------|-----------------------------------|
|-------------------------|-----------------------------------|

First time through play riff 3, then play riff 4A.
Second time play through riff 3 then play riff 4B. 

Riff 5
|------------------------------------------|
|------------------------------------------|
|------------------------------------------|
|-----------7----7--------5-7-7/9\7-5------|
|-7-10-7-10---10---7----7--------------7---|
|------------------------------------------|

Riff 6
|-----------------------------------------|
|-----------------------------------------|
|-----------------------------------------|
|-----------------5h7---------------------|
|--2-2-2-2----7-------5---------------5~--|
|--0-0-0-0------7---------7-6-5-3-5-7-----|

Riff 7
|---------------------------------------------------------------------------|
|---------------------------------------------------------------------------|
|-------------------10-7--8-5--7-3---5-8------------------------------------|
|--10-7--8-5--7-3------------------------10-7--8-5--7-3--10-7--8-5--7-3--5-8|
|---------------------------------------------------------------------------|
|---------------------------------------------------------------------------|
[ Tab from: http://www.guitartabs.cc/tabs/c/cky/far_cry_behind_tab.html ]
|---------------------------------------------------------------------------|
|---------------------------------------------------------------------------|
|---------------------------------------------------------------------------|
|----------------------------------------10-7--8-5--7-3--10-7--8-5--7-3--5-8|
|--10-7--8-5--7-3--10-7--8-5--7-3--5-8--------------------------------------|
|---------------------------------------------------------------------------|


SOLO 

|15-14-------15-17-17BR-15-------------------------------------|
|------15/17---------------17-17BR-15--------------------------|
|-------------------------------------16-14-12-14v~------------|
|--------------------------------------------------------------|
|--------------------------------------------------------------|
|--------------------------------------------------------------|

|--------------------------------------------------------------|
|-------------------12/13--------------------------------------|
|-12-14-16-14-12--------------------12-12/14\12----14-14/16\14-|
|----------------14-------14v~---14-------------12-------------|
|--------------------------------------------------------------|
|--------------------------------------------------------------|

|--------------------------------------------------------------|
|-------------------------12-----------------------------------|
|----16-16/17\16-14-12-14----14p12-12/14\12-----14-12-12h14p12-|
|-14----------------------------------------12-----------------|
|--------------------------------------------------------------|
|--------------------------------------------------------------|


|-----------------17-15\---|
|----12-13-15-/17----------|
|--------------------------|
|-14-----------------------|
|--------------------------|
|--------------------------|

Ending

|-----------|      |---------|  |-------------------------------|
|-----------|      |---------|  |-------------------------------|
|-----------|      |---------|  |-------------------------------|
|---10------| 3x   |10--10-10|  |---9---9---9---9---5---5---5---|
|-7----7-7-7|      |---------|  |-5---5---5---5---5---5---5----5|
|-----------|      |---------|  |-------------------------------|

Strum these multiple times, with some kind of effect (fast wah,phaser)
|--------------------|
|--------------------|
|--------------------|
|--/7------/5--------|
|--/7------/5--------|
|--/5------/3--------|

End on this, slide down
|------|
|------|
|------|
|-7----|
|-7----|
|-5----|

For the best cky/foreign Obejects, Oil, Rudy and Blitz midis & ringtones
visit 
www.hickskater.0catch.com/ckymidis.htm

visit ckytabs.cjb.net for the best tabs...Most of these tabs on here have been stolen
from Colin Kemage....Also FarCryBehind.com has somee updates to colins tabs, as well as
some original Foregin Objects tabs....
    
                                     Justin890
Comments