Cky - Familiar Relm Chords & Tabs

 

Familiar Relm Chords & Tabs

Cky Chords & Tabs

Version: 1 Type: Tab 0 ratings
1 star 2 stars 3 stars 4 stars 5 stars
comments

Familiar Relm Tab

This is my tab for "Familiar Relm" off of CKY's new album that comes out June 28th
I got this song off iTunes a few days ago and if you didn't know already it's amazing.
Its pretty accurate with maybe a few wrong notes. Enjoy!

KEY:
h=hammer on
p=pull off
/=slide
*=palm muted

Intro
|--------------|-------------------------------------------------------------------|
|--------------|-------------------------------------------------------------------|
|--------------|-------------------------------------------------------------------|
|--------------|-----------------------------------------------4-----4------4---6--|
|4-44h7p4-2h4p2|----------------22h4p2-4h7p4-2h4p2-----74-4676---------7-47---7----|
|--------------|0-000-000-000-0--------------------555-----------777---------------|
                  *** *** ***                      ***           ***
[ Tab from: http://www.guitartabs.cc/tabs/c/cky/familiar_relm_tab.html ]
|-----------------------------------------------------|
|-----------------------------------------------------|
|-----------------------------------------------------|
|-----6-4-2-4-2---2------4/6-2------------------------|
|--------------44--44-2-4-----------------------------|
|-000-------------------------------------------------|
  ***
R1
|-----------------------------------------------------|
|-----------------------------------------------------|
|-----------------------------------------------------|
|-----------------------------------------------------|
|-----------------22h4p2-4h7p4-2h4p2------------------|
|-0-000-000-000-0-------------------------------------|
    *** *** ***
R2
|-----------------------------------------------------|
|-----------------------------------------------------|
|-----------------------------------------------------|
|----------------------------------------7--9---------|
|-----------------------------------------------------|
|-0-000-000-000-222-222-222-444-555-555-5-55--5-------|
    *** *** *** *** *** *** *** *** *** * **  *
R3
|---------------------------------------------------------------------------------|
|---------------------------------------------------------------------------------|
|---------------------------------------------------------------------------------|
|-------------4-----4------4---6-----6-4-2-4-2---2------4/6-2---------------------|
|-----74-4676---------7-47---7----------------44--44-2-4--------------------------|
|-555-----------777--------------000----------------------------------------------|
  ***           ***              ***
R4(Second guitar during solo)
|-----------------------------------------------------|
|-----------------------------------------------------|
|-------------------------------8---------------------|
|------------------------10---8-----------------------|
|-----10-8-----6-8-----8----8-------------------------|
|-888------888-----666--------------------------------|
  ***      ***     ***
R5(shorter version of R3)
|-----------------------------------------------------|
|-----------------------------------------------------|
|-----------------------------------------------------|
|-------------4-----4------4---6-----6-4-2-4----------|
|-----74-4676---------7-47---7------------------------|
|-555-----------777--------------000------------------|

The song is arranged like this
Intro
R1
R2
R1(2x)
R2
R3(2x)
R1(2x)
R2
R1
R3(2x)
R1
R4(6x)
R1
R2
R1
R3
R5(Repeats until song fades out)

I couldn't figure out the actual solo (the part loaded down with synth) because i ran 
of patience. I may try to figure it out some other time.
random_hero13@hotmail.com
Comments