Cky - Familiar Realm Chords & Tabs

 

Familiar Realm Chords & Tabs

Cky Chords & Tabs

Version: 4 Type: Tab

Familiar Realm Tab

Tabber:Kilian McMahon
e-mail:kilianis@hotmail.com


Tuning: D A D G B e   (I know this is in a lower tuning but I've worked this out while
playing it with the cd and it sounds right.)



----------------
 Familiar Realm
 ---------------






Intro
|-----------------------|
|-----------------------|
|-----------------------| 
|-----------------------|
|---0-2---2-5-2-0-5-0---| 
|------5-0--------------|

Verse Riff 1                                                 Verse Riff 1 Variation
|--------------------------------------|      |------------------------------------|
|--------------------------------------|      |------------------------------------|
|--------------------------------------|      |------------------------------------|
|--------------------------------------|      |------------------------------------|
|------------------0-2---2-5-2-0-5-0---|      |----------------------2-5-2-0-5-0---|
|---00000000000000----5-0--------------|      |---00000000000000--00---------------|


Verse Riff 2
|-------------------------------------------|
|-------------------------------------------|
|-------------------------------------------|
|----------------------------------55--77---|
|-------------------------------------------|
|---00000000000022222222244455555-5---5-----|
[ Tab from: http://www.guitartabs.cc/tabs/c/cky/familiar_realm_tab_ver_4.html ]
Chorus Riff 1
|------------------------------------------|
|------------------------------------------|
|------------------------------------------|
|-------------0-0h2----2-0-----0-2-0-2h4---|
|------5-2-2-4-4----000-0-0-0h2------------|
|---555-5-5--------------------------------|

Chorus Riff 2
|------------------|-------------------|      
|------------------|-------------------|      
|------------------|-------------------|      
|--------2h4-2-0-2-|0--0-------2h4-0---|      
|------------------|-22-222-0-2--------|      
|---000------------|-------------------|      

Riff Under Solo
|-----------------------------------|
|-----------------------------------|
|-----------------------4-----2-----|
|------4-2---00h2----2-2----2---2---|
|---222---222-----000-0--00--0-0----|
|-----------------------------------|
(Really sorry about not tabbing the solo)

Playing Order:

Intro   X1
Verse Riff 1   X1
Chorus Riff 1   X1
Chorus Riff 2   X1
Verse Riff 1   X1   
Verse Riff 2   X1
Verse Riff 1   X1
Verse Riff 1 Variation X1
Verse Riff 2   X1
Verse Riff 1   X1
Chorus Riff 1   X1
Chorus Riff 2   X1
Chorus Riff 1   X1
Chorus Riff 2   X1
Verse Riff 1   X1
Verse Riff 1 Variation   X1
Verse Riff 2   X1
Verse Riff 1   X1
Chorus Riff 1   X1
Chorus Riff 2   X1
Chorus Riff 1   X1
Chorus Riff 2   X1
Verse Riff 1   X1
Solo + Riff Under Solo   X6
Verse Riff 1  X1
Verse Riff 2   X1
Verse Riff 1  X1
Chorus Riff 1   X1
Chorus Riff 2   X1
Chorus Riff 1   X1
Chorus Riff 2  X1 (only play first half)
Chorus Riff 1  X1           
Chorus Riff 2  X1(Half)     
(Repeat and fade out)



Ok this is as close as I could get it so
I really think its right.

I'm a rhythm guitarist and I really
don't think I'd do the solo any justice by
tabbing it just by the basic notes
when its so much more intricate.


Thanks any comments please let me know.