Cky - Familiar Realm Chords & Tabs

 

Familiar Realm Chords & Tabs

Cky Chords & Tabs

Version: 1 Type: Tab 0 ratings
1 star 2 stars 3 stars 4 stars 5 stars
comments

Familiar Realm Tab

Tuning: Whole Step Down

Intro

|-----------------------------|
|-----------------------------|
|-----------------------------|
|-----2------4-2---2-------2--|
|-2-4---4-2------4---4-2---2--|
|--------------------------0--|

|-------------------------------------------------|
|-------------------------------------------------|
|-------------------------------------------------|
|--------------------------2------4-2---2------2--|
|----------------------2-4---4-2------4---4-2--2--|
|-0-0-0-0-0-0-0-0-0-0--------------------------0--|

|----------------------------------------------------------|
|----------------------------------------------------------|
|----------------------------------------------------------|
|-------2---0-----0---0/4---------4---4-----4----2/6----2--|
|-0-0-0---0---0-2---2-------2-2-2---2---2-4---2---------2--|
|-------------------------------------------------------0--|

|---------------------------------------------|
|---------------------------------------------|
|---------------------------------------------|
|---------------------------------------------|
|-------/6-4~~2-4--2-----2-----------4-6-2----|
|-0-0-0---------------4-4---4-4--2-4----------|
[ Tab from: http://www.guitartabs.cc/tabs/c/cky/familiar_realm_tab.html ]
|-------------------------------------------------|
|-------------------------------------------------|
|-------------------------------------------------|
|----------------------------------------------2--|
|--------------------------7------9-7---7------2--|
|-0-0-0-0-0-0-0-0-0-0--7-9---9-7------9---9-7--0--|

|--------------------------------------------------------------------------------|
|--------------------------------------------------------------------------------|
|--------------------------------------------------------------------------------|
|-----------------------------------------------------------------------------2--|
|-------------------------------------------0-0-0-0-0-0-0-0-2-2-2-2-2-2-2-2-2-2--|
|-0-0-0-0-0-0-0-0-0-0-2-2-2-2-2-2-2-2-4-4-4-----------------------------------0--|

backing for solo:
|----------------------------------------------------|
|----------------------------------------------------|
|----------------------------------------------------|
|---------/6-4-------2-4--------4--2--4----4---6---4-|
|----------------------------------------------------|
|-0-0-0--------0-0-0------0-0-0----------0---0---0---|

|---------------------------------------------------------|
|---------------------------------------------------------|
|--------------------------------------------------4------|
|---------/6-4-------2-4---------4--2--4-----4--------6---|
|---------------------------------------------------------|
|-0-0-0---------0-0-0------0-0-0------------0---0----0----|
Comments