Cky - Eye Of The Tiger Chords & Tabs

 

Eye Of The Tiger Chords & Tabs

Cky Chords & Tabs

Version: 1 Type: Tab 0 ratings
1 star 2 stars 3 stars 4 stars 5 stars
comments

Eye Of The Tiger Tab

   
Camp Kill Yourself – Eye of the Tiger



           Any questions, comments or what not don’t even bother.
 
Tuning – Cb Gb Cb Fb Ab Db

Riff 1 :                                                     
--------------------------------------------------------------
--------------------------------------------------------------
--------------------------------------------------------------
---7--------7----5---7-------7---5---7--------7------5------3-
---5--------5----3---5-------5---3---5--------5------3------1-
--------------------------------------------------------------
[ Tab from: http://www.guitartabs.cc/tabs/c/cky/eye_of_the_tiger_tab.html ]
Riff 2 :                                                                                                               
----------------------------------------------------------------------------------------------
----------------------------------------------------------------------------------------------
----------------------------------------------------------------------------------------------
---0-----0—--0--7—--5---7-------0-----0---0-----7---5---7----0-----0---0-----7-----5-----3----
---0-----0---0--5---3---5-------0-----0---0-----5---3---5----0-----0---0-----5-----3-----1----
---0-----0---0------------------0-----0---0------------------0-----0---0--------0------0------
pm.      *   *                  *     *   *                  *     *    *       *      *                                           


Riff 3  :  
----------------------------------------------------------------------------
----------------------------------------------------------------------------
----------------------------------------------------------------------------
---0—--0-0-0—--0-0-0—--0-0-0—--0-0-0----3—--3-3-3--—3-3-3—--3-3-3—--3-3-3---
---0--—0-0-0---0-0-0---0-0-0---0-0-0----1---1-1-1---1-1-1---1-1-1---1-1-1---
---0---0-0-0---0-0-0---0-0-0---0-0-0----------------------------------------
pm     * * *   * * *   * * *   * * *        * * *   * * *   * * *   * * *

Riff 3 cont.

-----------------------------------------------------------------------------
-----------------------------------------------------------------------------
-----------------------------------------------------------------------------
-----5---5-5-5---5-5-5---5-5-5---5-5-5---7---7-7-7---7-7-7---7-7-7---7-7-7---
-----3---3-3-3---3-3-3---3-3-3---3-3-3---5---5-5-5---5-5-5---5-5-5---5-5-5---
-----------------------------------------------------------------------------
pm      * * *    * * *   * * *   * * *       * * *   * * *   * * *   * * *


Song Structure :
 
Riff 1 = 2x
Riff 2 = 2x
Riff 3  = 4x
Riff 1 =2x
 THE END  tabbed by Andy (hordesofanubis@aol.com)
Comments