Cky - Escape From Hellview Chords & Tabs

 

Escape From Hellview Chords & Tabs

Cky Chords & Tabs

Version: 9 Type: Tab 0 ratings
1 star 2 stars 3 stars 4 stars 5 stars
comments

Escape From Hellview Tab

   
Escape from Hellview by CKY
Tabs by: by Jared Denham
Tuning: Whole step down (DGCFAD)

\=slide
p=pull off

Main Riff
-|-------------------------------------------------------------------------|
-|-------------------------------------------------------------------------|
-|-------------------------------------------------------------------------|
-|----------------------------------------------7-7-7-/9-/7-7---5-8-8---6--|
-|-------7-------------10-9-12-10-7-10----------5-5-5-/7-/5-5---5-6-6---6--|
-|-0-0-7---0-0-7-8-0-0-----------------7-10-5-7---------------7-------7----|

Verses A

-|-------------------------------------------------------------------------|
-|-------------------------------------------------------------------------|
-|-------------------------------------------------------------------------|
-|-------------------------------------------------------------------------|
-|-10-9-10-9------7-9-7-10-9-------10-9-10-9------7-9-7-10-9---------------|
-|-----------10-7-----------10-7-7-----------10-7------------10-7----------|

Verses B

-|-------------------------------------------------------------------------|
-|-------------------------------------------------------------------------|
-|-------------------------------------------------------------------------|
-|-9-7-5-7-5-7-------------------------------------------------------------|
-|-------------5-3--10-9-10-9------7-9-7-10-9------------------------------|
-|----------------------------10-7------------10---------------------------|

Pre-Chorus A
[ Tab from: http://www.guitartabs.cc/tabs/c/cky/escape_from_hellview_tab_ver_9.html ]
-|-------------------------------------------------------------------------|
-|-------------------------------------------------------------------------|
-|-------------------------------------------------------------------------|
-|-------------------------55-55-55-55-44-44-77----------------------------|
-|-22-22-22-22-22-22-22-22-33-33-33-33-22-22-55-55-------------------------|
-|-00-00-00-00-00-00-00-00----------------------33-------------------------|

Pre-Chorus B

-|--------------------------------------------------------------------------|
-|--------------------------------------------------------------------------|
-|--------------------------------------------------------------------------|
-|-------------------------55-55-55-55-44-44-7------------------------------|
-|-22-22-22-22-22-22-22-22-33-33-33-33-22-22-5------------------------------|
-|-00-00-00-00-00-00-00-00--------------------------------------------------|

Bridge

-|--------------------------------------------------------------------------|
-|--------------------------------------------------------------------------|
-|--------------------------------------------------------------------------|
-|-----10p-----10/11-----6---8-6---6-----10p-----10/11-----6---8-6----------|
-|-8-8-----8-8-------8-8---6-----6---8-8-----8-8-------8-8---6-----6--------|
-|--------------------------------------------------------------------------|

This is the layout of the song.

Main Riff(3x)
Verses A
Verses B
Verses A
Verses B
Pre-Chorus A
Pre-Chorus B
Main Riff(2x)
Verses A
Verses B
Pre-Chorus A
Pre-Chorus B
Main Riff(4x)
Bridge(3x)
Pre-Chorus A
Pre-Chorus A
*Rest*
Main Riff(4x)

This tab is almost dead on. The only exception is part of the verses.

My guitar teacher and i sat down and he figured out the main riff. Later, I figured out 
 verses, pre-chorus and the bridge. I just wanted to give him credit. Force change now 
roCK on.
Comments