Cky - Escape From Hellview Chords & Tabs

 

Escape From Hellview Chords & Tabs

Cky Chords & Tabs

Version: 6 Type: Tab 0 ratings
1 star 2 stars 3 stars 4 stars 5 stars
comments

Escape From Hellview Tab

Octave pedal on..
RIFF 1                                 
|---------------------------------------------------------------------|
|---------------------------------------------------------------------|
|-------------------------------------------------7---9------7-8------|
|-----9-------9-10-------5-4-7-5-----5--9---7-9----------9---------9--|
|-------7-------------------------7-------5-----5---5--5---5-----6---6|
|-0-0-----0-0-------0-0-----------------------------------------------|
  . .     . .       . .           .    ^let the rest ring    

RIFF 1 - Variation (LIVE this way)                  
|---------------------------------------------------------------------|
|---------------------------------------------------------------------|
|-------9-----------------------------------------7---9------7-8------|
|-----9-------9-10-------5-4-7-5-----5--9---7-9----------9---------9--|
|---------------------------------7-------5-----5---5--5---5-----6---6|
|-0-0-----0-0-------0-0-----------------------------------------------|
  . .     . .       . .           .    ^let the rest ring    

RIFF 2
|---------------------------------------------------------------------|
|---------------------------------------------------------------------|
|-------------------------------------------------9---7------7-8------|
|-----9-------9-10-------5-4-7-5-----5--9---7-9----------9---------9--|
|-------7-------------------------7-------5-----5---5--5---5-----6---6|
|-0-0-----0-0-------0-0-----------------------------------------------|
  . .     . .       . .           .    ^let the rest ring

RIFF 2 - Variation (LIVE this way)
|---------------------------------------------------------------------|
|---------------------------------------------------------------------|
|-------9-----------------------------------------9---7------7-8------|
|-----9-------9-10-------5-4-7-5-----5--9---7-9----------9---------9--|
|---------------------------------7-------5-----5---5--5---5-----6---6|
|-0-0-----0-0-------0-0-----------------------------------------------|
  . .     . .       . .           .    ^let the rest ring
                                                 
[ Tab from: http://www.guitartabs.cc/tabs/c/cky/escape_from_hellview_tab_ver_6.html ]
VERSES something like this...I'm not really sure (low D string notes are bass) 
-|----------------------------------------------------------------------------------
-|----------------------------------------------------------------------------------
-|------12-11-12-11---------9-11-----11-12------12-11-12-11--------9-11----11-12----
-|------------------12--------------------12---------------12-10--------------------
-|----------------------------------------------------------------------------------
-|-0-------------------8---------7-----------0----------------8---------7-----------
   1the fire dies on its own                    leaving us to ourselves but not exactly al-    
   2now Im finding my friends   	hanging from trees made a bed of a barbed wire fence
   
-|--------------------------------------------------
-|--------------------------------------------------
-|----12/16----14-12-14-12-14/16----12-11----12-11--
-|--------------------------------------------------
-|--------------------------------------------------
-|0------------------------------10-------9---------
one I think thatsomethingisout therewaiting 
i'm on the loose with my neck in the noose


PRE-CHORUS 1 "so turn back, the silence is deafening..."
-|----------------------------------------------------------------------------
-|----------------------------------------------------------------------------
-|----------------------------------------------------------------------------
-|---------------------------5-55-55-55-5--4-444--77--------------------------
-|-2-22-22-22-22-22-2-22-22--3-33-33-33-3--2-222--55-55-----------------------
-|-0-00-00-00-00-00-0-00-00--------------------------33-----------------------
   . .. .. .. .. .. . .. ..    .. .. .. .    ...  .. ..
						
PRE-CHORUS 2					   "SO WE'RE OUT"
-|----------------------------------------------------------------------------
-|----------------------------------------------------------------------------
-|----------------------------------------------------------------------------
-|---------------------------5-55-55-55-5--4-444--7---------------------------
-|-2-22-22-22-22-22-2-22-22--3-33-33-33-3--2-222--5---------------------------
-|-0-00-00-00-00-00-0-00-00---------------------------------------------------
   . .. .. .. .. .. . .. ..    .. .. .. .    ...   

BRIDGE Guitar 1      
-|----------------------------------------------------------------------------
-|----------------------------------------------------------------------------
-|-----5--------5-6------------------------5-------5-6----------------8-------
-|-------3---------------6-5-8-6---6---------3---------------6-5-8-6--8-------
-|-------------------------------8------------------------------------6-------
-|-1-1-----1-1-------1-1---------------1-1-----1-1------1-1-------------------
                                                           

BRIDGE Guitar 2 (LIVE this way)
-|----------------------------------------------------------------------------
-|----------------------------------------------------------------------------
-|--------10-----------------------------------10------------------------8----
-|-----10--------10-11-----6-5-8-6---6------10--------10-11-----6-5-8-6--8----
-|-8-8-------8-8-------8-8---------8----8-8-------8-8-------8-8----------6----
-|----------------------------------------------------------------------------
Comments