Cky - Escape From Hellview Chords & Tabs

 

Escape From Hellview Chords & Tabs

Cky Chords & Tabs

Version: 3 Type: Tab 0 ratings
1 star 2 stars 3 stars 4 stars 5 stars
comments

Escape From Hellview Tab

1/2 step down.

intro/chorus

Eb-----------------------------------------------------------------
Bb-----------------------------------------------------------------
Gb-----------------------------------------------------------------
Db-----------------------------------------------------------------
Ab-----2-------2-3-----------------2---0-2---7---5---2---5-6---2---
Eb-0-0---0-0-0-----0-0-2-0-5-2-0-2---0-----0---0---0---0-----0---0-

verse
|-----play 2x-------------------|---------then this part-----------|
Eb------------------------------|---------------------------------- then the 
Bb-----8-7-8-7-5---8-7---8-7-8--|-------8-7-8-7-5---8-7---8-7-8---- first part
Gb-9-9-----------5-----4--------|---9-9-----------7-----6---------- once more.
Db------------------------------|----------------------------------
Ab------------------------------|----------------------------------
Eb------------------------------|----------------------------------

pre chorus
[ Tab from: http://www.guitartabs.cc/tabs/c/cky/escape_from_hellview_tab_ver_3.html ]
Eb-----------------------------------------------------------------
Bb----------------------------------------------------------------- just play
Gb----------------------------------------------------------------- it till the
Db-----7---5---4---7----------------------------------------------- chorus 
Ab-2---5---3---2---5---5------------------------------------------- starts.
Eb-0-------------------3-------------------------------------------

bridge

Eb-----------------------------------------------------------------
Bb-----------------------------------------------------------------
Gb-----------------------------------------------------------------
Db-----------------------------------------------------------------
Ab-----3-------3-4-------------------------------------------------
Eb-1-1---1-1-1-----1-1-4-3-6-4-0-1---------------------------------

that's all of it. i know not all of it is exact, but it should help you get
started if you had plans to make your own tab of it or something. you can email
me at nosferatu12786@aol.com if you have questions or comments. thanks.
Comments