Cky - Escape From Hellview Chords & Tabs

 

Escape From Hellview Chords & Tabs

Cky Chords & Tabs

Version: 2 Type: Tab 0 ratings
1 star 2 stars 3 stars 4 stars 5 stars
comments

Escape From Hellview Tab

D tuning (DGCFAD) one step down
[ Tab from: http://www.guitartabs.cc/tabs/c/cky/escape_from_hellview_tab_ver_2.html ]
D---------------------------------------------------------------------------
A---------------------------------------------------------------------------
F---------------------------------------------------------------------------
C----------------------------------------------------------------0--0--2--0-
G----------2-----------2--3--------------0-----------2-----0--2-------------
D----0--0-----0--0--0--------0--0--3--2-----3--2--3-----0-------------------


D---------------------|  REPEAT 3X
A---------------------|
F---------------------|
C----0--2--0-----0--2-|
G-2-----------2-------|
D---------------------|

the timing is not exact at all.  Just listen to the song and
figure it out and you'll be good to go.
Comments