Cky - Escape From Hellview Chords & Tabs

 

Escape From Hellview Chords & Tabs

Cky Chords & Tabs

Version: 10 Type: Tab 0 ratings
1 star 2 stars 3 stars 4 stars 5 stars
comments

Escape From Hellview Tab

I AM SOOOO TIRED OF WRONG TABS heres the right fuckin way to play this song.
and im sick of everyone whos posting shitty tabs so im gonna post all the cky
songs i know that took me hours to figure out BY EAR BY MYSELF. NOT 100% ACCURATE,
but sure as hell better than more than half of the tabs on here.

now this song, when you play it slowly while reading, it may sound bad. but memorize
this and i promise it will be perfect. playing it up to speed looks fucking awesome,
my fingers look the same way chad and derons do. watch the chopped and sliced dvd
when youve mastered this, and then youll know how good these tabs are.

half step down tuning, like most of the other cky songs
-------------------------------------------------------------------------------------------------|
-------------------------------------------------------------------------------------------------|
----------9-----------7-------------------------------------------7------9------------7-8--------|
-------9-----------9-----------------7-------------9-------9-------------------9--------------9--|
-7-7---------7-7-------7-7-10-7----10-7-10---5-10---5-----5-----5------5-------6-----6-----------|
-------------------------------------------------------------------------------------------------|

-------------------------------------------------------------------------------------------------|
-------------------------------------------------------------------------------------------------|
----------9-----------7-------------------------------------------9------7------------7-8--------|
-------9-----------9-----------------7-------------9-------9-------------------9--------------9--|
-7-7---------7-7-------7-7-10-7----10-7-10---5-10---5-----5-----5------5-------6-----6-----------|
-------------------------------------------------------------------------------------------------|

-------------------------------------------------------------------------------------------------|
-------------------------------------------------------------------------------------------------|
----------9-----------7-------------------------------------------7------9------------7-8--------|
-------9-----------9-----------------7-------------9-------9-------------------9--------------9--|
-7-7---------7-7-------7-7-10-7----10-7-10---5-10---5-----5-----5------5-------6-----6-----------|
-------------------------------------------------------------------------------------------------|

verse
"the fire dies on its own..."
-------------------------------------------|
-------------------------------------------|
-------------------------------------------|
---5-4-5-4--------4-5-----4-5-4------------|
--------------5----------------------------|
-0---------------8--------7-----------0----|

"leaving us to ourselves but not exactly alone"
-------------------------------------------|
-------------------------------------------|
-------------------------------------------|
---5-4-5-4--------4-5-----4-5-9------------|
--------------5----------------------------|
-0---------------8--------7------------0---|

"im over hearing a whisper they wont escape..."
------------------------------------|
------------------------------------|
------------------------------------|
-9-7-5-7-5-9-7-5-9-7-5-9------------|
------------------------------------|
----------------------------------0-|

"until the blood is set free"
----------------------------------------|
----------------------------------------|
----------------------------------------|
---5-4-5-4--------4-5-----5-4-----------|
--------------5--------------------5----|
-0---------------8--------7-------------|

chorus
"so turn back, the silence is deafening..."
---------------------------------------------------------------------------------------|
---------------------------------------------------------------------------------------|
----------------------------------------------- 7-5--5-5--5-5--5-7-5--4-4-4-4--7-7-----|
-2--2-2--2-2--2-2--2-2--2-2--2-2-2---7-5--5-5--5-5--5-7-5--4-4-4-4--7-7--7-------------|
-2--2-2--2-2--2-2--2-2--2-2--2-2-2---5-3--3-3--3-3--3-5-3--2-2-2-2--5-5--7-------------|
-0--0-0--0-0--0-0--0-0--0-0--0-0-0--------------------------------------------------5--|

"they make the rounds at the midnight hour and..."
----------------------------------------------------------------------------------|
----------------------------------------------------------------------------------|
----------------------------------------------- 7-5--5-5--5-5--5-7-5--4-4-4-4--7--|
-2--2-2--2-2--2-2--2-2--2-2--2-2-2---7-5--5-5--5-5--5-7-5--4-4-4-4--7-------------|
-2--2-2--2-2--2-2--2-2--2-2--2-2-2---5-3--3-3--3-3--3-5-3--2-2-2-2--5-------------|
-0--0-0--0-0--0-0--0-0--0-0--0-0-0------------------------------------------------|

"so were hours awake, and our only mistake is we bleed"
-------------------------------------------------------------------------------------------------|
-------------------------------------------------------------------------------------------------|
----------9-----------7-------------------------------------------7------9------------7-8--------|
-------9-----------9-----------------7-------------9-------9-------------------9--------------9--|
-7-7---------7-7-------7-7-10-7----10-7-10---5-10---5-----5-----5------5-------6-----6-----------|
-------------------------------------------------------------------------------------------------|

"and the hunger for the living helps them hunt it with the greatest of ease"
-------------------------------------------------------------------------------------------------|
-------------------------------------------------------------------------------------------------|
----------9-----------7-------------------------------------------9------7------------7-8--------|
-------9-----------9-----------------7-------------9-------9-------------------9--------------9--|
-7-7---------7-7-------7-7-10-7----10-7-10---5-10---5-----5-----5------5-------6-----6-----------|
-------------------------------------------------------------------------------------------------|

"and now im finding my friends..."
-------------------------------------------|
-------------------------------------------|
-------------------------------------------|
---5-4-5-4--------4-5-----4-5-4------------|
--------------5----------------------------|
-0---------------8--------7-----------0----|

"hanging from trees, made a bed of a barbed wire fence"
-------------------------------------------|
-------------------------------------------|
-------------------------------------------|
---5-4-5-4--------4-5-----4-5-9------------|
--------------5----------------------------|
-0---------------8--------7------------0---|

"im on the loose with my neck in the noose but hey,"
------------------------------------|
------------------------------------|
------------------------------------|
-9-7-5-7-5-9-7-5-9-7-5-9------------|
------------------------------------|
----------------------------------0-|

"i enjoy the intense"
----------------------------------------|
----------------------------------------|
----------------------------------------|
---5-4-5-4--------4-5-----5-4-----------|
--------------5--------------------5----|
-0---------------8--------7-------------|

chorus
"so turn back, the silence is deafening..."
---------------------------------------------------------------------------------------|
---------------------------------------------------------------------------------------|
----------------------------------------------- 7-5--5-5--5-5--5-7-5--4-4-4-4--7-7-----|
-2--2-2--2-2--2-2--2-2--2-2--2-2-2---7-5--5-5--5-5--5-7-5--4-4-4-4--7-7--7-------------|
-2--2-2--2-2--2-2--2-2--2-2--2-2-2---5-3--3-3--3-3--3-5-3--2-2-2-2--5-5--7-------------|
-0--0-0--0-0--0-0--0-0--0-0--0-0-0--------------------------------------------------5--|
[ Tab from: http://www.guitartabs.cc/tabs/c/cky/escape_from_hellview_tab_ver_10.html ]
"they make the rounds at the midnight hour and..."
----------------------------------------------------------------------------------|
----------------------------------------------------------------------------------|
----------------------------------------------- 7-5--5-5--5-5--5-7-5--4-4-4-4--7--|
-2--2-2--2-2--2-2--2-2--2-2--2-2-2---7-5--5-5--5-5--5-7-5--4-4-4-4--7-------------|
-2--2-2--2-2--2-2--2-2--2-2--2-2-2---5-3--3-3--3-3--3-5-3--2-2-2-2--5-------------|
-0--0-0--0-0--0-0--0-0--0-0--0-0-0------------------------------------------------|

"so were hours awake, and our only mistake is we bleed"
-------------------------------------------------------------------------------------------------|
-------------------------------------------------------------------------------------------------|
----------9-----------7-------------------------------------------7------9------------7-8--------|
-------9-----------9-----------------7-------------9-------9-------------------9--------------9--|
-7-7---------7-7-------7-7-10-7----10-7-10---5-10---5-----5-----5------5-------6-----6-----------|
-------------------------------------------------------------------------------------------------|

"and the hunger for the living helps them hunt it with the greatest of ease"
-------------------------------------------------------------------------------------------------|
-------------------------------------------------------------------------------------------------|
----------9-----------7-------------------------------------------9------7------------7-8--------|
-------9-----------9-----------------7-------------9-------9-------------------9--------------9--|
-7-7---------7-7-------7-7-10-7----10-7-10---5-10---5-----5-----5------5-------6-----6-----------|
-------------------------------------------------------------------------------------------------|

"no experience could ever match the site of when a person is through,"
-------------------------------------------------------------------------------------------------|
-------------------------------------------------------------------------------------------------|
----------9-----------7-------------------------------------------7------9------------7-8--------|
-------9-----------9-----------------7-------------9-------9-------------------9--------------9--|
-7-7---------7-7-------7-7-10-7----10-7-10---5-10---5-----5-----5------5-------6-----6-----------|
-------------------------------------------------------------------------------------------------|

"if its the last thing i will do ill be the one that will escape from hellview...
and i will"
-------------------------------------------------------------------------------------------------|
-------------------------------------------------------------------------------------------------|
----------9-----------7-------------------------------------------9------7------------7-8--------|
-------9-----------9-----------------7-------------9-------9-------------------9--------------9--|
-7-7---------7-7-------7-7-10-7----10-7-10---5-10---5-----5-----5------5-------6-----6-----------|
-------------------------------------------------------------------------------------------------|


-------------------------------------------------------|
-------------------------------------------------------|
----------10------------8------------------------------|
------10-----------10------------------8---------------|
-8-8----------8-8---------8-8-11-8----11-8-11----------|
-------------------------------------------------------|

------------------------------------------------------------|
------------------------------------------------------------|
----------10------------8-----------------------------------|
------10-----------10------------------8--------------------|
-8-8----------8-8---------8-8-11-8----11--------------------|
--------------------------------------------------11--------|      play all that 3 times

chorus
"so turn back, the silence is deafening..."
---------------------------------------------------------------------------------------|
---------------------------------------------------------------------------------------|
----------------------------------------------- 7-5--5-5--5-5--5-7-5--4-4-4-4--7-7-----|
-2--2-2--2-2--2-2--2-2--2-2--2-2-2---7-5--5-5--5-5--5-7-5--4-4-4-4--7-7--7-------------|
-2--2-2--2-2--2-2--2-2--2-2--2-2-2---5-3--3-3--3-3--3-5-3--2-2-2-2--5-5--7-------------|
-0--0-0--0-0--0-0--0-0--0-0--0-0-0--------------------------------------------------5--|

"they make the rounds at the midnight hour and..."
----------------------------------------------------------------------------------|
----------------------------------------------------------------------------------|
----------------------------------------------- 7-5--5-5--5-5--5-7-5--4-4-4-4--7--|
-2--2-2--2-2--2-2--2-2--2-2--2-2-2---7-5--5-5--5-5--5-7-5--4-4-4-4--7-------------|
-2--2-2--2-2--2-2--2-2--2-2--2-2-2---5-3--3-3--3-3--3-5-3--2-2-2-2--5-------------|
-0--0-0--0-0--0-0--0-0--0-0--0-0-0------------------------------------------------|

"so turn back, the silence is deafening, turn back dont let them see you again.
they make the rounds at the midnight hour and, on the clock its just a minute away"

"so were hours awake, and our only mistake is we bleed"
-------------------------------------------------------------------------------------------------|
-------------------------------------------------------------------------------------------------|
----------9-----------7-------------------------------------------7------9------------7-8--------|
-------9-----------9-----------------7-------------9-------9-------------------9--------------9--|
-7-7---------7-7-------7-7-10-7----10-7-10---5-10---5-----5-----5------5-------6-----6-----------|
-------------------------------------------------------------------------------------------------|

"and the hunger for the living helps them hunt it with the greatest of ease"
-------------------------------------------------------------------------------------------------|
-------------------------------------------------------------------------------------------------|
----------9-----------7-------------------------------------------9------7------------7-8--------|
-------9-----------9-----------------7-------------9-------9-------------------9--------------9--|
-7-7---------7-7-------7-7-10-7----10-7-10---5-10---5-----5-----5------5-------6-----6-----------|
-------------------------------------------------------------------------------------------------|

"no experience could ever match the site of when a person is through,"
-------------------------------------------------------------------------------------------------|
-------------------------------------------------------------------------------------------------|
----------9-----------7-------------------------------------------7------9------------7-8--------|
-------9-----------9-----------------7-------------9-------9-------------------9--------------9--|
-7-7---------7-7-------7-7-10-7----10-7-10---5-10---5-----5-----5------5-------6-----6-----------|
-------------------------------------------------------------------------------------------------|

"if its the last thing i will do ill be the one that will escape from hellview... and i will!"
-------------------------------------------------------------------------------------------------------|
-------------------------------------------------------------------------------------------------------|
----------9-----------7-------------------------------------------9------7------------7-8-----------9--|
-------9-----------9-----------------7-------------9-------9-------------------9--------------9----9---|
-7-7---------7-7-------7-7-10-7----10-7-10---5-10---5-----5-----5------5-------6-----6-7---------------|
-------------------------------------------------------------------------------------------------------|

thanks for reading
kenny
theckyguy502@aol.com
Comments