Cky - Escape From Hellview Chords & Tabs

 

Escape From Hellview Chords & Tabs

Cky Chords & Tabs

Version: 2 Type: Bass Tab

Escape From Hellview Bass Tab

   
Escape From Hellview
Tabbed by: Derry Todd
Date: 11:54 AM March 12, 2005

yea that other tab is totally wrong, so i desided to tab the song myself

the tunning of the song is in D. Not drop D but every string a whole step down.

the intro/chorus is played like this

G---------------------------------------------------7---9------7--8-------|
D-------9-------9-10------5-4-7-5---5--9---7---9------------9---------9---|
A---------7-----------------------7------5-------5----5---5---5-----6---6-|
E---0-0-----0-0------0-0--------------------------------------------------|
this part is prety tricky, when you get down twords the end of the riff it is easiest to 
the rythem by putting the emphethis(pardon my spelling) on the 5's.
[ Tab from: http://www.guitartabs.cc/tabs/c/cky/escape_from_hellview_btab_ver_2.html ]
Verse
G-----------------------------------------------------------------------------|
D-2--10-9--2--10-9--2--12--10-2--10-9--2--10-9--2--10-9--0--12--10-2--10-9--2-|
A-----------------------------------------------------------------------------|
E-0--8--7--0--8--7--0--10--8--0--8--7--0--8--7--0--8--7--0--10--8--0--8--7--0-|
all this is is simple octave chord thingies, sorry pick players but you will need to use 
fingers on this part.

pre chorus
G---------------------------------------------------------|
D---------------------------------------------------------|
A---------------------------------------------------------|
E-0-0-0-0-0-0-0-0-0-0-0-8-8-8-8-8-8-8-8-7-7-7-7-10-0-12-0-|

Chorus

Verse2 (played half as long as the first)

Pre chorus

Chorus

After that the song changes key to E-flat. while the synth is playing just do this until it fades out
G-----------------------------|
D-----------------------------|
A-----------------------------|
E-1-1-1-1-1-1-1-1-1-1-1-1-1-1-|

when it fades out just to this along with the guitar

G--------------------------------|
D-----10---10-11-----6-5-8-6---6-|
A-8-8----8-------8-8---------8---|
E--------------------------------|

then you back into the pre chrous this time you play it longer...
then the chorus...

well thats the song, just play to the song to get the song order.