Cky - Dressed In Decay Chords & Tabs

 

Dressed In Decay Chords & Tabs

Cky Chords & Tabs

Version: 2 Type: Tab 0 ratings
1 star 2 stars 3 stars 4 stars 5 stars
comments

Dressed In Decay Tab

   
-------------------------------------------------------------------------------
			     DRESSED IN DECAY - CKY
-------------------------------------------------------------------------------
Tabbed by : kima
        	
       
Tuning:DGCFAD
              VERSE
D|---------------------------------------------------------------------------|
A|---------------------------------------------------------------------------|
F|-------------------------------------------------7--4----------------------|
C|-------------5-----7-----5-----7--9--5--------------------5-----7----5-----|
G|----5--7--------------------------------7-----3--------3-----3-------------|
D|-3--------3-----3-----0-----0--------------------------------------0----0--|
                      PRE CHORUS
D|---------------!---------------------------------------------------!-------|
A|---------------!---------------------------------------------------!-------|
F|---------------!------------------4----4/6----------------------4--!-------|
C|--7--9--5------!---------4--6-----------------------4-----6--------!-------|
G|-----------7---!------2--------2-----2--------4--7-----4-----4-----!-------|
D|---------------!---------------------------------------------------!-------|
             CHORUS
D|----------------------------------------------------------------------------------|
A|----------------------------------------------------------------------------------|
F|-----------------------4-----3-------------------------------4------6------6/8----|
C|----------4-----6-----------------4-----6-----4-----------6-----------------------|
G|-------6------------------2----2-----2-----2--------------------------------------|
D|--4-4--------4-----4--------------------------------0--0---------0------0---------|

D|----------------------------------------------------------------------------|
A|----------------5------4----------------------------------------------------|
F|----------4-----------------------------------------------------------------|
C|-------6-----6------4-------------------------------------------------------|
G|----------------------------------------------------------------------------|
D|--0-0-----------------------------------------------------------------------|


| /  slide up
| \  slide down
| h  hammer-on
| p  pull-off
| ~  vibrato
| +  harmonic
| x  Mute note
===============================================================================
[ Tab from: http://www.guitartabs.cc/tabs/c/cky/dressed_in_decay_tab_ver_2.html ]
Comments