Cky - Dressed In Decay Chords & Tabs

 

Dressed In Decay Chords & Tabs

Cky Chords & Tabs

Version: 1 Type: Tab 0 ratings
1 star 2 stars 3 stars 4 stars 5 stars
comments

Dressed In Decay Tab

DRESSED IN DECAY
don't know the intro

|-----------------------------------------|
|-----------------------------------------|
|---------1----4---4/6---------1----2---4-|
|------4----------------------4-----------|
|-2-2-------2---2-------4-4------4----4---|
|-----------------------------------------|
[ Tab from: http://www.guitartabs.cc/tabs/c/cky/dressed_in_decay_tab.html ]
|---------------------------------------|
|---------------------------------------|
|---------------------------------------|
|--------4----6----9----8---------------|
|------6--------------------9---11----9-|
|-4-4------4----4----7----7---7-----7---|

|-------------------------------------------------|
|------------------------------------------5----4-|
|----------4------6-----6/8----------4------------|
|-------6--------------------------6-----4---4----|
|-------------------------------------------------|
|-0-0---------0-----0--------0-0------------------|
Comments