Cky - Disengage The Simulator Chords & Tabs

 

Disengage The Simulator Chords & Tabs

Cky Chords & Tabs

Version: 5 Type: Tab 0 ratings
1 star 2 stars 3 stars 4 stars 5 stars
comments

Disengage The Simulator Tab

   
im pretty sure that this song is correct.  i spent a lot of time on it and played it 
the song so it sounds good.  its regular tuning.  if you have any corrections, e-mail
me at hyperbubblez90@aol.com

INTRO
|-------------------------------------------------------------|
|-------------------------------------------------------------|
|-------------------------------------------------------------|
|---------1-2-------2---1-2-1---------------------2---1-2-1---|
|-----------------2---2-------2---------1-2-----2---2-------2-|
|-0-0-0-0-----0-0---------------0-0-0-0-----0-0---------------|
[ Tab from: http://www.guitartabs.cc/tabs/c/cky/disengage_the_simulator_tab_ver_5.html ]
INTRO CONT
|-------------------------------------------------|
|-------------------------------------------------|
|---------------------1-1---------------------1-1-|
|-----2-2-4-4-----4-4---------2-2-4-4-----4-4-----|
|-4-4---------2-2---------4-4---------2-2---------|
|-------------------------------------------------|

|-----------------------------------------|
|-----------------------------------------|
|---------------0-------------------------|
|-----2-2p0-------4-2p0-0-4-0-4-0-4-0-2-4-|
|-----2-----2p0---------------------------|
|-0-0-0-----------------------------------|

listen to the song to find out how many times to do it.  u play the intro a couple times 
the begining.  and the part where its just drums and a guitar part its just

|---|
|---|
|---|
|-2-|
|-2-|
|-0-|

a couple times.

~Kristi
F.C.N.
Comments