Cky - Disengage The Simulator Chords & Tabs

 

Disengage The Simulator Chords & Tabs

Cky Chords & Tabs

Version: 4 Type: Tab 0 ratings
1 star 2 stars 3 stars 4 stars 5 stars
comments

Disengage The Simulator Tab

This is CKY's best song and it is 100% correct :) (D-G-C-F-A-D)

Intro/verses
|-------------------------|-------------------------------------------
|-------------------------|-------------------------------------------
|-------------------------|-----------------------------9----9----11--
|-4-444---4-44----4---3---|-----4--2h4-2---2/7-6-4----6--6--6-6--8----
|-4-444-4---44---4-4-1-4--|-----4--------4---------6-7-----7----9-----
|-2-222-----22--2---------|-2~--2-------------------------------------
[ Tab from: http://www.guitartabs.cc/tabs/c/cky/disengage_the_simulator_tab_ver_4.html ]
Choruses
|----------------------------------------------
|----------------------------------------------
|--------------------------------9----9----11--
|-4-444--2h4-2h4-2---2/7-6-4----6-6--6-6--8----
|-4-444------------4---------6-7----7----9-----
|-2-222----------------------------------------

Verses
|-------------------------|----------------------------|
|-------------------------|----------------------------|
|-------------------------|-----6-6-8-8-----8-8-10-10--|
|----4-4-6-6-----6-6-8-8--|-8-8---------6-6------------|
|-6-6--------4-4----------|----------------------------|
|-------------------------|----------------------------|
 (Deron)                       (Chad)

Thats it have a good time...
...Mark Davidson...
Comments