Cky - Disengage The Simulator Chords & Tabs

 

Disengage The Simulator Chords & Tabs

Cky Chords & Tabs

Version: 3 Type: Tab 0 ratings
1 star 2 stars 3 stars 4 stars 5 stars
comments

Disengage The Simulator Tab

-----------------------------------------------------------------------------
		   DISENGAGE THE SIMULATOR - CKY
-----------------------------------------------------------------------------
Tabbed by: Funkmaster D
Email: mrstabbystabspeople@hotmail.com


Standard CKY tuning (Down half a step)

Verse 1
--------------------------------------
--------------------------------------
--------------------------------------
--------------3-------------3-----2---
-3--3-3--3-3-----3--3--3-3----3-----3-
-1--1-1--1-------1--1--1-1------5----- x2

------------------------------
------------------------------
------------------------------
-----3-3--5-5------5-5--7-7---
-5-5-----------3-3------------
------------------------------ x2

--------------------------------------
--------------------------------------
--------------------------------------
--------------3-------------3-----2---
-3--3-3--3-3-----3--3--3-3----3-----3-
-1--1-1--1-------1--1--1-1------5----- x2

----------------------------------------------------------
----------------------------------------------------------
------------------------------------5-5--7-7-----7-7--9-9-
-----3-3--5-5------5-5--7-7----7-7--3-3--5-5-5-5-5-5--7-7-
-5-5-----------3-3-------------5-5-----------3-3----------
----------------------------------------------------------

Play The whole verse 1 twice over then

Chorus

--------------------------------------------------
----------------------------4--------4-------6----
---------------1----------3----3---3---3---5---5--
-------3-1---1---5-3---1---------1-------3--------
-3-3-3-----3---------5----------------------------
-1-1-1-------------------------------------------- x4

then

Verse 2
----------------------------------------
----------------------------------------
----------------------------------------
----------------------------------------
-3-3-3-3-3-3----------------3-3-3-3-3-3-
-1-1-1-1-1-1----------------1-1-1-1-1-1-

------------------------------
------------------------------
------------------------------
-----3-3--5-5------5-5--7-7---
-5-5-----------3-3------------
------------------------------ x2

--------------------------------------
--------------------------------------
--------------------------------------
--------------3-------------3-----2---
-3--3-3--3-3-----3--3--3-3----3-----3-
-1--1-1--1-------1--1--1-1------5----- x2

----------------------------------------------------------
----------------------------------------------------------
------------------------------------5-5--7-7-----7-7--9-9-
-----3-3--5-5------5-5--7-7----7-7--3-3--5-5-5-5-5-5--7-7-
-5-5-----------3-3-------------5-5-----------3-3----------
----------------------------------------------------------
[ Tab from: http://www.guitartabs.cc/tabs/c/cky/disengage_the_simulator_tab_ver_3.html ]
--------------------------------------
--------------------------------------
--------------------------------------
--------------3-------------3-----2---
-3--3-3--3-3-----3--3--3-3----3-----3-
-1--1-1--1-------1--1--1-1------5----- x2

------------------------------
------------------------------
------------------------------
-----3-3--5-5------5-5--7-7---
-5-5-----------3-3------------
------------------------------ x2

--------------------------------------
--------------------------------------
--------------------------------------
--------------3-------------3-----2---
-3--3-3--3-3-----3--3--3-3----3-----3-
-1--1-1--1-------1--1--1-1------5----- x2

----------------------------------------------------------
----------------------------------------------------------
------------------------------------5-5--7-7-----7-7--9-9-
-----3-3--5-5------5-5--7-7----7-7--3-3--5-5-5-5-5-5--7-7-
-5-5-----------3-3-------------5-5-----------3-3----------
----------------------------------------------------------

--------------------------------------
--------------------------------------
--------------------------------------
--------------3-------------3-----2---
-3--3-3--3-3-----3--3--3-3----3-----3-
-1--1-1--1-------1--1--1-1------5----- x2


Chorus 
--------------------------------------------------
----------------------------4--------4-------6----
---------------1----------3----3---3---3---5---5--
-------3-1---1---5-3---1---------1-------3--------
-3-3-3-----3---------5----------------------------
-1-1-1-------------------------------------------- x4

Verse 3

-----------------------------------------------------------------
-----------------------------------------------------------------
-----------------------------------------------------------------
-----------------------------------------------------------------
-3-3-3-3-3-3----------------3-3-3-3-3-3--------------3-3-3-3-3-3-
-1-1-1-1-1-1----------------1-1-1-1-1-1--------------1-1-1-1-1-1-

------------------------------
------------------------------
------------------------------
-----3-3--5-5------5-5--7-7---
-5-5-----------3-3------------
------------------------------ x2

--------------------------------------
--------------------------------------
--------------------------------------
--------------3-------------3-----2---
-3--3-3--3-3-----3--3--3-3----3-----3-
-1--1-1--1-------1--1--1-1------5----- x2

Outro

----------------------------------------------------------
----------------------------------------------------------
------------------------------------5-5--7-7-----7-7--9-9-
-----3-3--5-5------5-5--7-7----7-7--3-3--5-5-5-5-5-5--7-7-
-5-5-----------3-3-------------5-5-----------3-3----------
----------------------------------------------------------

----------------------------
----------------------------
------5-5--7-7-----7-7--9-9-
-7-7--3-3--5-5-5-5-5-5--7-7-
-5-5-----------3-3----------
----------------------------

----------------------------
----------------------------
------5-5--7-7-----7-7--9-9-
-7-7--3-3--5-5-5-5-5-5--7-7-
-5-5-----------3-3----------
----------------------------

Repeat this outro 3 times while it fades out
Comments