Cky - Disengage The Simulator Chords & Tabs

 

Disengage The Simulator Chords & Tabs

Cky Chords & Tabs

Version: 2 Type: Tab 0 ratings
1 star 2 stars 3 stars 4 stars 5 stars
comments

Disengage The Simulator Tab

   
Words and Music by Deron Miller 
From Volume 1 
Tab by John Houx with Deron Miller 

Tuning: 1 Step Down (Low to High: D G C F A D) 

Riff 1 2x (1x leading into song, 1x with lyrics) 

Guitar 1 
F# 
------------------------------------- 
------------------------------------- 
------------------------------------- 
-4---4-4---4-----4-4----------------- 
-4---4-4---4-----4-4----------------- 
-2---2-2---2-----2-2----------------- 

Guitar 2 
-------------------------------------- 
-------------------------------------- 
-------------------------------------- 
---------------4------------4-----3--- 
-------------4------------4---4-1---4- 
-2---2-2---2-----2-2----2------------- 

With the error that's in my mind and in my soul 

Riff 2 1x 

Guitar 1 
Bass: 
 Eb          C#          B            C# 
-------------------------------------------------- 
-------------------------------------------------- 
-------------------------------------------------- 
-----4-4/6-6-----6-6/8-8------4-4/6-6-----6-6/8-8- 
-6-6---------4-4---------6-6----------4-4--------- 
-------------------------------------------------- 

Riff 1 2x 

I got a picture in the box that's bringing me to where I am 

Riff 3 1x 

Bass: 
 Eb          C#          B            C# 
---------------------------------------------------- 
---------------------------------------------------- 
------------------------------6-6/8-8-----8-8/10-10- 
-----4-4/6-6-----6-6/8-8-8-8----------6-6----------- 
-6-6---------4-4------------------------------------ 
---------------------------------------------------- 

Riff 1 2x 

Yet the eyes are all affixed on you not me 

Riff 2 1x 

For driving blind 

Riff 1 2x 

And the first time will be the last time that you believe 

Riff 3 1x 

Chorus Riff 3x 

F# 
------------------------------------------------ 
------------------------------------------------ 
--------------------------------9-----9------11- 
------/4/4---2-----7-6-------6-----6------8----- 
-4---4---------4/7-----9-6-7--7--7--7---9------- 
-2---2---------------------0-------------------- 

You're falling as you decide 
Face down the whole world wide 
Before cannot be retrieved 

Riff 1 2x (Guitar 1 only) 
From all the way up here there's no end 

Riff 2 1x 
I'm flying high 
[ Tab from: http://www.guitartabs.cc/tabs/c/cky/disengage_the_simulator_tab_ver_2.html ]
Riff 1 2x 
But the worst is never first and there's a person that'll set you straight 

Riff 3 1x 
Riff 1 2x 
Cancelling the force within my brain 

Riff 2 1x 
For flying high 

Riff 1 2x 
The simulator has been disengaged 

Riff 3 1x 

Pre-Chorus Riff 1x 

Chorus Riff 1 3x 

Indifference begins to take sides 
Face down the whole world wide 
Before cannot be retrieved 

Chorus Riff 2 1x 

Riff 1 3x (Guitar 1 only) 
From all the way up here there's no end 

Riff 2 1x 
I'm flying high 

Riff 1 2x 
But the worst is never first and there's a person that'll set you straight 

Outro Riff 3x 

Guitar 1 
 Eb          C#          B            C# 
-------------------------------------------------- 
-------------------------------------------------- 
-------------------------------------------------- 
-----4-4/6-6-----6-6/8-8------4-4/6-6-----6-6/8-8- 
-6-6---------4-4---------6-6----------4-4--------- 
-------------------------------------------------- 

 B           C#          B            C# 
-------------------------------------------------- 
-------------------------------------------------- 
-------------------------------------------------- 
-----4-4/6-6-----6-6/8-8------4-4/6-6-----6-6/8-8- 
-6-6---------4-4---------6-6----------4-4--------- 
-------------------------------------------------- 
  

Guitar 2 
 Eb              C#               B               C# 
----------------------------------------9-9-11-11-------11-11-13-13- 
-------------------------------------------------------------------- 
------11-11/13-13-----13-13/15-15-11-11-----------13-13------------- 
-13-13-----------11-11---------------------------------------------- 
-------------------------------------------------------------------- 
-------------------------------------------------------------------- 

Guitar 2 
 B               C#               B               C# 
------9-9-11-11-------11-11-13-13-------9-9-11-11-------11-11-13-13- 
-------------------------------------------------------------------- 
-11-11-----------13-13------------11-11-----------13-13------------- 
-------------------------------------------------------------------- 
-------------------------------------------------------------------- 
--------------------------------------------------------------------
 

 2001 CKY and John Houx
Comments