Cky - Destination Undefined Chords & Tabs

 

Destination Undefined Chords & Tabs

Cky Chords & Tabs

Version: 1 Type: Tab 0 ratings
1 star 2 stars 3 stars 4 stars 5 stars
comments

Destination Undefined Tab

DESTINATION UNDEFINED - CKY

By: D. Corona

half step up
e|---------------------------------------------------------------------------|
B|---------------------------------------------------------------------------|
G|---------------------------------------------------------------------------|
D|-----2-4-2-----------------------------------------------------------------|
A|-----------4-2-0-2-4-2-0-2-4------0----------------------------------------|
E|-0-2-------------------------0-or/-----------------------------------------|
[ Tab from: http://www.guitartabs.cc/tabs/c/cky/destination_undefined_tab.html ]
e|---------------------------------------------------------------------------|
B|---------------------------------------------------------------------------|
G|---------------------------------------------------------------------------|
D|---------------------------------------------------------------------------|
A|-7-x-x-7-x-7--3-3-3-x-x-5-x-x-5-x-5--2-2-2---------------------------------|
E|---------------------------------------------------------------------------|

e|---------------------------------------------------------------------------|
B|---------------------------------------------------------------------------|
G|---------------------------------------------------------------------------|
D|------------------5----------------x-x-7-x-x-7-----------------------------|
A|-3-2-0--5-3-0-3-0-----3-2-0--5-3-0-----------------------------------------|
E|---------------------------------------------------------------------------|

this is most of the stuff in the song im not sure if its all right though ive only
playing 10 months im 13 and i tabbed it as i listened to it so cut me some slack
Comments