Cky - Deceit Is Striking Gold Chords & Tabs

 

Deceit Is Striking Gold Chords & Tabs

Cky Chords & Tabs

Version: 2 Type: Tab 0 ratings
1 star 2 stars 3 stars 4 stars 5 stars
comments

Deceit Is Striking Gold Tab

   
-------------------------------------------------------------------------------
			     Deceit Is Striking Gold - CKY
-------------------------------------------------------------------------------
Tabbed and yelled at by: Ian Barr
Distributed by: http://www.ultimate-guitar.com dont steal, they will do a spiteful hate jig at you
Tuning: whole step down

e|-------------------------------|
B|-------------------------------|
G|-------------------------------|
D|-------------------------------|
A|--7--7--8--8--9--9--10-10-12---|
E|--5--5--6--6--7--7--8--8--10---|

e|-----------------------------------|
B|-----------------------------------|
G|-----------------------------------|
D|-----9---8---7------/7-------------|
A|-----7---6---5--0-3----7-5---------|
E|-0-----0---0---------------7-5-3---|
[ Tab from: http://www.guitartabs.cc/tabs/c/cky/deceit_is_striking_gold_tab_ver_2.html ]
e|-----------------------------------------------------------------------------------|
B|-----------------------------------------------------------------------------------|
G|-----------------------------------------------------------------------------------|
D|-------------------/7--------------------------------------------------------------|
A|-------7-6--5----3----7-5----------------------------------------------------------|
E|-0---0---------5----------7-5-3----------------------------------------------------|

e|-------------------------------------------------|
B|-------------------------------------------------|
G|---------------------------2-1-------------------|
D|---/7-6---2-4---2-4--------------2-4---2-4-------|
A|--------4-----4-----4-2--------4-----4-----4-2---|
E|-2-----------------------2-----------------------|

e|--------------------------------------------|
B|--------------------------------------------|
G|--------------------------------------------|
D|--------------------------------------------|
A|---4------------5----------2----------------|
E|-2---2--2-2-5-5---5-7-7--0---0-0-0-2-2-5-2--|

| /  slide up
| \  slide down
| h  hammer-on
| p  pull-off
| ~  vibrato
| +  harmonic
| x  Mute note
===============================================================================
Comments