Cky - Close Yet Far Chords & Tabs

 

Close Yet Far Chords & Tabs

Cky Chords & Tabs

Version: 6 Type: Tab 0 ratings
1 star 2 stars 3 stars 4 stars 5 stars
comments

Close Yet Far Tab

I AM SOOOO TIRED OF WRONG TABS heres the right fuckin way to play this song. and im sick 
everyone whos posting shitty tabs so im gonna post all the cky songs i know that took 
hours to figure out BY EAR BY MYSELF. NOT 100% ACCURATE, but sure as hell better
than more than half of the tabs on here.
tuned half step down

verse
-------------------------------------------|
-------------------------------------------|
-0-----------2---------2-4-5-7-5-4-0-------|
----0-----0-----0--------------------------|
-------2------------2----------------------|
-------------------------------------------|

------------------------------------------------|
----------------------------------------------0-|
-0-----------2---------2-4-5-7-5-4-2-0----------|
----0-----0-----0-------------------------------|
-------2------------2---------------------------|
------------------------------------------------|

-------------------------------------------|
-------------------------------------------|
--------------2---------2-4-5-7-5-4-0------|
----0-----0-----0--------------------------|
-------2------------2----------------------|
-------------------------------------------|

-------------------------------------------|
-------------------------------------------|
-0-----------2---------2-4-5-7-5-4-0-------|
----0-----0-----0--------------------------|
-------2------------2----------------------|
-------------------------------------------|

play that all again when vocals start

chorus
--------------|
--------------|
--------------|
-2---4--5-----|
-2---4--5-----|
-0---2--3-----|    play 4 times
[ Tab from: http://www.guitartabs.cc/tabs/c/cky/close_yet_far_tab_ver_6.html ]
distorted guitar at the same time goes..
-------------------------------|
-12-13-15-13---12--------------|
--------------------------12---|
-------------------------------|
-------------------------------|
-------------------------------|

---------------------------------------|
-12-13-15-13---12----------12----------|
--------------------------14-12--------|
---------------------------------------|
---------------------------------------|
---------------------------------------|

-------------------------------|
-12-13-15-13---12--------------|
--------------------------12---|
-------------------------------|
-------------------------------|
-------------------------------|

-------------------------------|
-12-13-15-13---12--------------|
--------------------------12---|
-------------------------------|
-------------------------------|
-------------------------------|

-----------------------------|
-----------------------5-5---|
--4-2-2-0-0-0----------------|
-------------------4---------|
-----------------------------|
-----------------------------|

"i can hear the sounds of the city"
play verse part over again

"close yet far, drop me a line..."
play chorus part over again

-----------------------------|
-----------------------5-5---|
--4-2-2-0-0-0----------------|
-------------------4---------|
-----------------------------|
-----------------------------| play twice

"close yet far, drop me a line"
play verse part over again TWICE

-----------------------------|
-----------------------5-5---|
--4-2-2-0-0-0----------------|
-------------------4---------|
-----------------------------|
-----------------------------| play 3 times, and if you did it right, the songs over
Comments