Cky - Close Yet Far Chords & Tabs

 

Close Yet Far Chords & Tabs

Cky Chords & Tabs

Version: 5 Type: Tab 0 ratings
1 star 2 stars 3 stars 4 stars 5 stars
comments

Close Yet Far Tab

|--------------------------------------------------------------|
|--------------------------------------------------------------|
|-0-----------2------------------------------------------------|
|----2-----2-----0-----0---9--1010/12\10---9-----0------------|
|-------2-----------0-------------------------10---------------|
|-0-----------2------------------------------------------------|
  >           >

|--------------------------------------------------------------|
|--------------------------------------------------------------|
|-0-----------2----------------------------------0-------------|
|----2-----2-----0-----0---9--1010/12\10---9------------------|
|-------2-----------0-------------------------10---------------|
|-0-----------2------------------------------------------------|
  >           >

|--------------------------------------------------------------|
|-0------------------------------------------------------------|
|--------0---2-------------------------------------------------|
|----2-------------0-----0---9--1010/12\10---9-----0----------|
|------2--------------0-------------------------10-------------|
|-0----------2-------------------------------------------------|
  >          >

|--------------------------------------------------------------|
|--------------------------------------------------------------|
|-0-----------2------------------------------------------------|
|----2-----2-----0-----0---9--1010/12\10---9------------------|
|-------2-----------0-------------------------10---------------|
|-0-----------2------------------------------------------------|
  >           > 
 
Electric w/distortion CHORUS
Note: the chord in parenthesis is played while the 2nd guitar
plays the riff after it (they are layerd).
[ Tab from: http://www.guitartabs.cc/tabs/c/cky/close_yet_far_tab_ver_5.html ]
"close yet far.."
|--------------------------------------------------------------|
|--------------------------------------------------------------|
|--------------------------------------------------------------|
|-5-----------7------(9)-------9--1010/12\10---9--------------|
|-5-----------7------(9)--------------------------10-----------|
|-3-----------5------(7)---------------------------------------|

"drop me a line.."
|--------------------------------------------------------------|
|--------------------------------------------------------------|
|--------------------------------------------------------------|
|-9-----------7------(5)------9--1010/12\10---9---------------|
|-9-----------7------(5)-------------------------10------------|
|-7-----------5------(3)---------------------------------------|

"i'll tip my hat.."
|--------------------------------------------------------------|
|--------------------------------------------------------------|
|--------------------------------------------------------------|
|-5-----------7------(9)-------9--1010/12\10---9--------------|
|-5-----------7------(9)--------------------------10-----------|
|-3-----------5------(7)---------------------------------------|

"though i never never never ever.."
|--------------------------------------------------------------|
|--------------------------------------------------------------|
|--------------------------------------------------------------|
|-5-----------7------(5)------9--1010/12\10---9---------------|
|-5-----------7------(5)-------------------------10------------|
|-3-----------5------(3)---------------------------------------|
 
 
[Acoustic]AFTER CHORUS RIFF 2
|--------------------------------------------------------------|
|-0---------------/5-/5----------------------------------------|
|----2--0------------------------------------------------------|
|-----------5-4------------------------------------------------|
|-2---------------/7-/7----------------------------------------|
|--------------------------------------------------------------|
Comments