Cky - Close Yet Far Chords & Tabs

 

Close Yet Far Chords & Tabs

Cky Chords & Tabs

Version: 4 Type: Tab 0 ratings
1 star 2 stars 3 stars 4 stars 5 stars
comments

Close Yet Far Tab

Song: Close Yet Far (track 10)
Artist: CKY
Album: Infiltrate Destroy Rebuild
Written by : D.Miller
Tabbed by: Seb (Seb_Seb_Idiot@hotmail.com)

------------------------------------------------------------------------------
------------------------------------------------------------------------------
-7-5-3/2-/57-57-5-\-2-/57-57-5-\-2----2--0------------------------------------
------------------------------------------3-----------------------------------
------------------------------------------------------------------------------
------------------------------------------------------------------------------
 Intro/Verse Guitar 1 (keyboard part)    3x                                     

------------------------------------------------------------------------------
------------------------------------------------------------------------------
-----7-------5----------------------------------------------------------------
---7---7---5---5---/7-\-8-10-8-7----------------------------------------------
-5------53------3---------------8---------------------------------------------
------------------------------------------------------------------------------
 Intro/Verse Guitar 3 (acoustic guitar) play 4x no lyrics 8x with lyrics 

who said that I wasn't right?
I've lived for years without a life
don't have a soul on my side
still ridiculed despite how hard that I have tried
don't take me under your wing
I don't need a hand, don't need anything
I've got a roof over my head
as if I'd rather be alone with me instead

------------------------------------------------------------------------------
------------------------------------------------------------------------------
--7-7-5-5---------------------------------------------------------------------
--7-7-5-5-3-------3-3-3-------------------------------------------------------
--5-5-3-3-3-------3-3-3-------------------------------------------------------
----------1-------1-1-1-------------------------------------------------------
 Chorus guitar 1 (distortion)  play 4x                                             

------------------------------------------------------------------------------
------------------------------------------------------------------------------
--7-7-5-5---------------------------------------------------------------------
--7-7-5-5--/7-\-8-10-8-7------------------------------------------------------
--5-5-3-3---------------8-----------------------------------------------------
------------------------------------------------------------------------------
 Chorus guitar 2 (distortion)  play 4x

close yet far
drop me a line and tell me how the hell you are
and I'll tip my hat to those who can't believe it's me
and I never never never ever wanted this to be                                                

------------------------------------------------------------------------------
-----------33-----------------------------------------------------------------
------------------------------------------------------------------------------
----7----5--------------------------------------------------------------------
--5---53----------------------------------------------------------------------
------------------------------------------------------------------------------
 post Chorus guitar 3 (acoustic) 1x                                            

------------------------------------------------------------------------------
------------------------------------------------------------------------------
------------------------------------------------------------------------------
------------------------------------------------------------------------------
-5----53----------------------------------------------------------------------
----------1-------------------------------------------------------------------
 post Chorus guitar 2 (low distorted)  1x                                       

------------------------------------------------------------------------------
------------------------------------------------------------------------------
--2----0----------------------------------------------------------------------
----------3-------------------------------------------------------------------
------------------------------------------------------------------------------
------------------------------------------------------------------------------
 Post Chorus Guitar 1 (keyboard)  1x     

no lyrics                                       

------------------------------------------------------------------------------
------------------------------------------------------------------------------
-7-5-3/2-/57-57-5-\-2-/57-57-5-\-2--2-0---------------------------------------
----------------------------------------3-------------------------------------
------------------------------------------------------------------------------
------------------------------------------------------------------------------
 Verse 2 Guitar 1 (keyboard part) 2x                                        

------------------------------------------------------------------------------
------------------------------------------------------------------------------
-----7-------5----------------------------------------------------------------
---7---7---5---5---/7-\-8-10-8-7----------------------------------------------
-5------53------3---------------8---------------------------------------------
------------------------------------------------------------------------------
 Verse 2 Guitar 3 (acoustic guitar) 8x
[ Tab from: http://www.guitartabs.cc/tabs/c/cky/close_yet_far_tab_ver_4.html ]
------------------------------------------------------------------------------
------------------------------------------------------------------------------
------------------------------------------------------------------------------
------------------------------------------------------------------------------
--5----3---------/5-35vv-35vv-3---/5-35vv-35vv-3----5----3--------------------
-------------1-----------------1----------------1--------------1--------------
 Verse 2 Guitar 2 (distorted) Comes in after the acoustic guitar plays riff 4x 

I can hear the sounds of the city
sunrise and set are the same to me
a hesitating pulse is good company
and my reflection offers no apology
but who said that I wasn't right?
and I've lived for years without a life
don't have a soul on my side
still ridiculed despite how hard that I have tried

------------------------------------------------------------------------------
------------------------------------------------------------------------------
--7-7-5-5---------------------------------------------------------------------
--7-7-5-5-3-------3-3-3-------------------------------------------------------
--5-5-3-3-3-------3-3-3-------------------------------------------------------
----------1-------1-1-1-------------------------------------------------------
 Chorus guitar 1 (distortion)  4x                                               

------------------------------------------------------------------------------
------------------------------------------------------------------------------
--7-7-5-5---------------------------------------------------------------------
--7-7-5-5--/7-\-8-10-8-7------------------------------------------------------
--5-5-3-3---------------8-----------------------------------------------------
------------------------------------------------------------------------------
 Chorus guitar 2 (distortion)  4x

close yet far
drop me a line and tell me how the hell you are
and I'll tip my hat to those who can't believe it's me
and I never never never ever wanted this to be
          

------------------------------------------------------------------------------
-----------33----------------33-----------------------------------------------
------------------------------------------------------------------------------
----7----5------------7----5--------------------------------------------------
--5---53------------5---53----------------------------------------------------
------------------------------------------------------------------------------
 Post Chorus 2 Guitar 3 (acoustic)                                            

------------------------------------------------------------------------------
------------------------------------------------------------------------------
--7---5----3-vvvv---7----5----3-vvv-------------------------------------------
--7---5-------------7----5----------------------------------------------------
--5---3-------------5----3----------------------------------------------------
------------------------------------------------------------------------------
 Post Chorus 2 Guitar 2 (distorted)                                           

------------------------------------------------------------------------------
------------------------------------------------------------------------------
--2----0------------2----0----------------------------------------------------
----------3-----------------3-------------------------------------------------
------------------------------------------------------------------------------
------------------------------------------------------------------------------
 Post Chorus 2 Guitar 1 (keyboard)

no lyrics                                            

------------------------------------------------------------------------------
------------------------------------------------------------------------------
-7-5-3/2-/57-57-5-\-2-/57-57-5-\-2--2-0---------------------------------------
----------------------------------------3-------------------------------------
------------------------------------------------------------------------------
------------------------------------------------------------------------------
 Chorus 2 Guitar 1 (keyboard part) 2x                                         

------------------------------------------------------------------------------
------------------------------------------------------------------------------
-----7-------5----------------------------------------------------------------
---7---7---5---5---/7-\-8-10-8-7----------------------------------------------
-5------53------3---------------8---------------------------------------------
------------------------------------------------------------------------------
 Chorus 2 Guitar 3 (acoustic guitar) 4x with lyrics 4x without                                      

close yet far
drop me a line and tell me how the hell you are
and I'll think of the days when there was something to believe
and I never never never ever wanted this to be

------------------------------------------------------------------------------
-----------33----------------33----------------33-vvv-------------------------
------------------------------------------------------------------------------
----7----5------------7----5------------7----5--------------------------------
--5---53------------5---53------------5---53----------------------------------
------------------------------------------------------------------------------
 Outro Guitar 3 (acoustic)                                                    

------------------------------------------------------------------------------
------------------------------------------------------------------------------
------------------------------------------------------------------------------
----------3-----------------3------------------3-vvv--------------------------
--5----3------------5----3------------5-----3---------------------------------
------------------------------------------------------------------------------
 Outro Guitar 2 (distorted)                                                   

------------------------------------------------------------------------------
------------------------------------------------------------------------------
--2----0------------2----0------------2-----0---------------------------------
----------3-----------------3------------------3-vvv--------------------------
------------------------------------------------------------------------------
------------------------------------------------------------------------------
 Outro Guitar 1 (keyboard)
Comments