Cky - Close Yet Far Chords & Tabs

 

Close Yet Far Chords & Tabs

Cky Chords & Tabs

Version: 3 Type: Tab 0 ratings
1 star 2 stars 3 stars 4 stars 5 stars
comments

Close Yet Far Tab

cky
close yet far
infilrate destroy rebuild
tuning: standard
by tyler ryan
email: tylerryan85@hotmail.com
email me with corrections

Intro/main riff - clean
-------------------------------------------------------------------------------
-------------------------------------------------------------------------------
-------------------------------------------------------------------------------
-3---5---7-8-10-8--7--3--------------------------------------------------------
-------------------------------------------------------------------------------
-------------------------------------------------------------------------------
[ Tab from: http://www.guitartabs.cc/tabs/c/cky/close_yet_far_tab_ver_3.html ]
Chorus - distortion
-------------------------------------------------------------------------------
-------------------------------------------------------------------------------
-------------------------------------------------------------------------------
-3---5---7-8-10-8--7--3--------------------------------------------------------
-------------------------------------------------------------------------------
-------------------------------------------------------------------------------

riff after chorus and outro
-------------------------------------------------------------------------------
------------------3-3----------------------------------------------------------
-------------------------------------------------------------------------------
-7--5--3--3-2--0---------------------------------------------------------------
-------------------------------------------------------------------------------
-------------------------------------------------------------------------------

there you go....it's simple!
Comments