Cky - Close Yet Far Chords & Tabs

 

Close Yet Far Chords & Tabs

Cky Chords & Tabs

Version: 1 Type: Tab 0 ratings
1 star 2 stars 3 stars 4 stars 5 stars
comments

Close Yet Far Tab

Close Yet Far by CKy

verse part: (general chords)
e   |---------------------------------------------
b   |--------------------------------------------- ...back to beginning
g   |---(2)---------------------------------------
d   |----3----5----------------------------------
a   |----5----3----7--8--10--8--787--5--3
e   |----5----3-----------------------------------


[ Tab from: http://www.guitartabs.cc/tabs/c/cky/close_yet_far_tab.html ]
heres the little midevil/classical "
e   |--------------------------------
b   |---------------------------------
g   |----2--0-----------3-1-3-------------
d   |----------3-----3-----------------
a   |-------------3--------------------
e   |----------------------------------




actual tab progression for intro/verse

e   |------------------------------------------------------------------------------------
b   |-----------------------------------------------------------------------------------
g   |----------------------------------------------------------------------------------
d   |----3-------3-----------5------5-----------7--8--10--8--787--5--3------
a   |----5-----------5-------3---3-----3---------------------------------------5--
e   |---------5-----------------------------------------------------------------------
Comments