Cky - Cky Volume 1 Chords & Tabs

 

Cky Volume 1 Chords & Tabs

Cky Chords & Tabs

Version: 1 Type: Tab 0 ratings
1 star 2 stars 3 stars 4 stars 5 stars
comments

Cky Volume 1 Tab

   
                             cKy
                           Camp Kill yourself

Tabbed by: Donald Lawson

All song by: Deron Miller, Chad Ginsburg, Jess Margera
Vocals: Deron Miller
Guitars: Deron Miller, Chad Ginsburg
Drums: Jess Margera

cKy sound: D'addario strings 10's
Metal Master or Danelectro Black Liccorice Foot Pedal
Marshal or Peavey Amp.


=====96 Quite Bitter Beings========
Tuning: Eb

Intro/Chorus:
1|-----------------------------------------------|
2|-----------------------------------------------|
3|-----4--------4-5-4-------------7-5-4-2-0-4----|
4|---5--------5-------5-4------5--------------5--|
5|-7--------7-------------5-3--------------------|
6|-------0---------------------------------------|

Verse:                   Bridge:
1|------------------|  1|------------------------|
2|------------------|  2|------------------------|
3|------------------|  3|------------------------|
4|-----------6-6-6--|  4|-5-5-5-5-5---4-4-4-4-4--|
5|-2-2-2--2--4-4-4--|  5|-7-7-7-7-7---5-5-5-5-5--|
6|-0-0-0--0---------|  6|------------------------|

Bridge Pt2
1|------------------------------------|-----------------------------------|
2|------------------------------------|-----------------------------------|
3|------------------------------------|-----------------------------------|
4|-7-7-7--5-0--------5-5-5-5-0--------|-7-7-7-5-0-9-9-9--5-5-5-5-0-9-9-9--|
5|-5-5-5------2-2-2--3-3-3------2-2-2-|-5-5-5-----7-7-7--3-3-3-----7-7-7--|
6|------------0-0-0-------------0-0-0-|-----------------------------------|

====Rio Bravo=====
Tuning: Whole Step Down DGCFAD

Intro/Main Riff:
1|--------------------------------------------------|
2|--------------------------------------------------|
3|--------------------------------------------------|
4|----8-----8-----8------8-8---8-----8-----8----8-8-|
5|----7-----7-----7------7-7---7-----7-----7----7-7-|
6|-0-----0-----0------------0-----0-----0-----------|

1|------------------------------------------------------------|
2|------------------------------------------------------------|
3|------------------------------------------------------------|
4|----8----9-8-7-----------5----------------------------------|
5|----7-----------7--5-6-7----------9-8-7----------5----------|
6|-0-----0---------------------0----------0--5-6-7---7-6-5-3-0|

1|--------------------------------------------------------|
2|--------------------------------------------------------|
3|--------------------------------------------------------|
4|----------------------------------5---------------5-----|
5|---9-8-7----------5---------5-6-7-----------5-6-7-------|
6|---------0--5-6-7---7-6-5-3---------7-6-5-3---------0---|

1|--------------------------------------------------|
2|--------------------------------------------------|
3|--------------------------------------------------|
4|----------------------------------5---------------|
5|---9-8-7----------5---------5-6-7-----------5-6-7-|
6|---------0--5-6-7---7-6-5-3---------7-6-5-3-------|

Bridge:
1|--------------------------------------------------|
2|--------------------------------------------------|
3|--------------------------------------------------|
4|----------------------------------5---------------|
5|---9-8-7----------5---------5-6-7-----------5-6-7-|
6|---------0--5-6-7---7-6-5-3---------7-6-5-3-------|

=====Disengage The Simulator======
Tuning: Whole Step Down DGCFAD

Intro Guitar1   Guitar2
1|----------| 1|-----------------------|
2|----------| 2|-----------------------|
3|----------| 3|-----------------------|
4|4-44-4-44-| 4|--------4------4---3---|
5|4-44-4-44-| 5|-------4------4-4-1--4-|
6|2-22-2-22-| 6|-2-22-2---22-2---------|

Riff Guitar1
1|---------------------------------------|
2|---------------------------------------|
3|---------------------------------------|
4|----44-66-----66-88-----44-66----66-88-|
5|-66-------44--------66--------44-------|
6|---------------------------------------|

Riff3 guitar2
1|----------------------------------------------------|
2|----------------------------------------------------|
3|------------------------------6-6/8-8-----8-8/10-10-|
4|-----4-4/6-6-----6-6/8-8-/8-8---------6-6-----------|
5|-6-6---------4-4------------------------------------|
6|----------------------------------------------------|

Chorus
1|----------------------------------------------------| 
2|----------------------------------------------------| 
3|-------------------------------9~------9~-----11----| 
4|--------/4---2-----7-6-4-----6----6--6---6---8------|
5|-4---4---------4/7-------6-7--------7------9--------|
6|-2---2----------------------------------------------| 

1|------------------------------------------------------| 
2|------------------------------------------------------| 
3|---------------------------------9~------9~-----11----| 
4|-----/4-/4~---2-----7-6-4------6----6--6---6---8------|
5|--4------------4/7-------6-7---------7------9---------|
6|-2----------------------------------------------------| 

Outro
1|----------------------------------------------------|
2|----------------------------------------------------|
3|------------------------------6-6/8-8-----8-8/10-10-|
4|-----4-4/6-6-----6-6/8-8-/8-8---------6-6-----------|
5|-6-6---------4-4------------------------------------|
6|----------------------------------------------------|

====The Human Drive In Hi Fi========
Tuning:Eb
wah 70's

Intro
1|-------------------------------------------------|
2|-11----------------------------------------13-11-|
3|-X-----------8----------8-10---8-----------------|
4|-8--10-10-11---11-10-11------11--11-10-8---------|
5|-------------------------------------------------|
6|-------------------------------------------------|

Main Riff
1|---------------------------------|
2|---------------------------------|
3|---------------------------------|
4|---------------------------------|
5|-------4---------7---6---4---6---|
6|-6-6-4---6-4-6-4---6---6---6---6-|

Verse
1|------------------------------------------------------------------|
2|------------------------------------------------------------------|
3|------------------------------------------------------------------|
4|------------------------------------------------------------------|
5|-----------------------------4-6----------------------------------|
6|-6---6-4-6-4-6-4-6---6-4-6-4------6---6-4-6-4-6-4-6---6-4-6-4-6-4-|

Chorus
1|----------------------------------------------------------------------|
2|----------------------------------------------------------------------| 
3|----------------------------------------------------------------------| 
4|---8---8-------------6---6-----------8---8----------------------------|
5|-----------4/6-6----------/8-6-4-------------4/6-6---/8--/8--/8-6-4---| 
6|-6---6-----------4-4---4---------6-6---6-----------4----------------6-| 

=====Lost In COntraption=======
Tuning:Whole Step Down DGCFAD
Intro:
|-------------------------------------------------------------------| 
|-------------------------------------------------------------------|
|---------------------------5-4---------4-5-4-----------------------|
|-6-7-6-------------6-7-6-7-----7-6---7-------6-7---6-7-6-----------| 
|-------8---9---8-9---------------------------------------9-8-9-----| 
|-------------------------------------------------------------------|

Verse:
1|-------------------------------------------------------------------| 
2|-------------------------------------------------------------------| 
3|-------------------------------------------------------------------| 
4|-----4---4---4---4---4---4---4---4---4---4---4---4---4---4---4---4-| 
5|-------------------------------------------------------------------| 
6|---2---2---2---2---2---2---2---2---2---2---2---2---2---2---2---2---|

Pre-Chorus Guitar1                    Guitar 2
1|--20-18-16------20-18-16--20-18-16|-------------------------------------|
2|----------------------------------|-------------------------------------| 
3|----------------------------------|-------------------------------------| 
4|----------------------------------|-------------------------------------|
5|----------------------------------|-------------------------------------| 
6|----------------------------------|-2-5-4-3-4-5-4-3--4-5-2-5-4-3-4-5-4-3| 

Verse Guitar1
1|--------------------------------------------------------| 
2|--------------------------------------------------------| 
3|--------------------------------------4-5-4-------------| 
4|-6-7-6-----------6-7-6---------6---7----------7-6-------| 
5|-------8---9-8-9-------9-8---9--------------------9-8-9-| 
6|--------------------------------------------------------|
 
Chorus Guitar1
1|---------------------|---------------------------|
2|---------------------| --------------------------|
3|---------------------|--------9----------------9-| 
4|-9-9-7---6-7-6---7---|---9-11---12------9--11----| 
5|---------------7-9---|---------------12----------|
6|---------------------|-0-------------------------| 

Bridge
1|--------------------------| 
2|--------------------------| 
3|---------------6----------| 
4|-----------------7-6-4----| 
5|-4-7-6-------4----------7-| 
6|-------7-4----------------|
Outro:Guitar2                    Guitar1
1|-----------------------------|-20-18-16-20-18-16-| 
2|-----------------------------|-------------------| 
3|-----------------------------|-------------------| 
4|-----------------------------|-------------------| 
5|-----------------------------|-------------------| 
6|-2-5-4--3-4-5-4-3--4-5-----2-|-------------------| 

==========Knee Deep========
Tuning: Whole Step Down 

Intro/Verse: Guitar1
1|-----------------------------------------------| 
2|-----------------------------------------------| 
3|------9b10r9-----------------------------------| 
4|-----9-------9-7-7-5/7-7-7--7--7p5-7---7---7p5-| 
5|-7---------------------5-5--5--5---3---3---3---| 
6|-----------------------------------------------| 

Guitar2
1|--------------|---------------------------------------| 
2|--------------|---------------------------------------| 
3|--------------|---9b10r9------------------------------| 
4|-----7---7----|--9-------9-7-7-5-7-7-7--7-7p5-7-7-7p5-|
5|-7---5---3----|-7----------------5-5-5--5-5---3-3-3---| 
6|-0---5---3----|---------------------------------------| 

Lead into: guitar1
1|--------------|
2|--------------|
3|--------------|
4|----7----7----|
5|-7---5---3----|
6|-0---5---3----|
Guitar2
1|----------------------------------------------------| 
2|----------------------------------------------------| 
3|------9b10r9----------/7----7-0-0--7/9-9\7-7/9-9/12-| 
4|-----9-------9-7-7-5/7------------------------------| 
5|-7--------------------------------------------------| 
6|----------------------------------------------------| 

Bridge 
1|------------|
2|------------|
3|------------|
4|------------|
5|-4-------4--|
6|-2-------2--| 

1|------------------------------| 
2|------------------------------| 
3|------------------------------| 
4|----2-4---------2-4-2--/6-4-2-| 
5|--------------4---------------| 
6|------------2-----------------|

Bridge 2 
1|---------------------------------------------------------------| 
2|---------------------------------------------------------------| 
3|---------------------------------------------------------------| 
4|-----2-4---------2-4-2--/6-4-2-------2h4---------2-4-2--/6-4-2-| 
5|---------------4-------------------------------4---------------| 
6|-2-------2---2-------------------2-------2---2-----------------| 
[ Tab from: http://www.guitartabs.cc/tabs/c/cky/cky_volume_1_tab.html ]
1|---------------------------------------------------------------| 
2|---------------------------------------------------------------| 
3|---------------------------------------------------------------| 
4|-------------4---2-4-2--/6-4-2---------------4---2-4-2--/6-4-2-| 
5|---------------4-------------------------------4---------------| 
6|-5---4-2-2-----------------------5---4-2-2---------------------| 

Verse2
1|------------0-----------------------| 
2|-------8-\5---\3-------3------------| 
3|-----------------0---0---0-5------4-| 
4|---------------------------7------5-| 
5|-7----------------------------------| 
6|-0----------------------------------| 

========My Promiscuous Daughter=======
Intro/verse Whole step Down  DGCFAD    Guitar1
1|-----------------------------------------------------------------| 
2|-----------------------------------------------------------------| 
3|-----------------------------------------------------------------| 
4|---------9-7---7---------9-7---7---------------------------------| 
5|-----7-7-----7-------7-7-----7---5-5-5-5-5-5-5-5-5-5-5-5-5-5-5-5-| 
6|-0-0-------------0-0-------------3-3-3-3-3-3-3-3-3-3-3-3-3-3-3-3-|

Guitar 2
1|-----------------------------------------------------------------| 
2|-----------------------------------------------------------------| 
3|-----------------------------------------------------------------| 
4|-----------------------------------------------------------------| 
5|-2-2-2-2-2-2-2-2-2-2-2-2-2-2-2-2-5-5-5-5-5-5-5-5-5-5-5-5-5-5-5-5-| 
6|-0-0-0-0-0-0-0-0-0-0-0-0-0-0-0-0-3-3-3-3-3-3-3-3-3-3-3-3-3-3-3-3-| 

Chorus Guitar1
1|-----------------------------------------------------------------| 
2|-----------------------------------------------------------------| 
3|-----------------------------------------------------------------| 
4|-9-9-9-9-9-9-9-9-9-9-9-9-9-9-9-912121212121212121212121212121212-| 
5|-7-7-7-7-7-7-7-7-7-7-7-7-7-7-7-710\9-9-9-9-910\9-9-9-9-910\9-9-9-| 
6|-0-0-0-0-0-0-0-0-0-0-0-0-0-0-0-0---------------------------------|

Guitar 2
1|-----------------------------------------------------------------| 
2|-----------------------------------------------------------------| 
3|-----------------------------------------------------------------| 
4|---------------------------------7-7-7-7-7-7-7-7-7-7-7-7-7-7-7-7-| 
5|-2-2-2-2-2-2-2-2-2-2-2-2-2-2-2-2-5-5-5-5-5-5-5-5-5-5-5-5-5-5-5-5-| 
6|-0-0-0-0-0-0-0-0-0-0-0-0-0-0-0-0-5-5-5-5-5-5-5-5-5-5-5-5-5-5-5-5-|

Interlude
1|-------4-4---2-2---0-2---0-2---2-0-2-------| 
2|-0-2-----------------------0-----------0---| 
3|-------------------------------------------| 
4|-------------------------------------------| 
5|-------------------------------------------|
6|-------------------------------------------|

Bridge

----------------------------------------------------------------------------
----------------------------------------------------------------------------
----------------------------------------------------------------------------
----------------------------------------------------------------------------
----/7p4------------------------/7p4----------------------------------------
-0-------7---0---3-/5-/5---0--0------7-0--3-5-3-5------------------------ x5

========Sara's Mask===========
Tuning: Whole Step Down DGCFAD
Intro/Verse:
1|-----------------------------------------|
2|-----------------------------------------|
3|-------------------7---------------------|
4|-----------9----------9------------------|
5|---------------9--------9--7---7--5-7-s9-|
6|-2-3---s7--------------------------------|

Chorus
1|---------------------------------------------------------|
2|---------------------------------------------------------|
3|---------------------------------------------------------|
4|------12-11---11-7---------------------------------------|
5|------------------------7s9---7-7--5-7-7s9s7-------7-----|
6|-7-------------------------------------------5---5---5-7-|

----------------------------------------------------------------------------
----------------------------------------------------------------------------
----------------------------------------------------------------------------
----12-11--11-7-7-/9-7-7--9p7-----------------------------------------------
-------------------------------9-7-5-7/9\7----------------------------------
-7--------------------------------------------------------------------------

Pre-Chorus
1|-------------------------------------------------------|
2|-------------------------------------------------------|
3|-------------------------------------------------------|
4|--------------9-7--------------------------------------|
5|-7--8-9--7-5--7-5----7--8-9--7-5--9-7----7------5--s10-|
6|-5--6-7--5-3---------5--6-7--5-3--7-5----5------3--s8--|

Bridge  Guitar1
----------------|------------------|----------------------------------------
----------------|------------------|----------------------------------------
----------------|------------------|----------------------------------------
----------------|------------------|----------7-----------------------------
----------------|-7--9-9-12-12--7--|--7-9-7-9-------------------------------
-7-10-7-9-7--5--|------------------|----------------------------------------
Guitar2
---------------|-------------------|----------------------------------------
---------------|-------------------|----------------------------------------
---------------|-------------------|----------------------------------------
---------------|-------------------|----------------------------------------
---------------|-7vv------------7v-|----------------------------------------
-5b---------/7-|-------------------|----------------------------------------

Bridge2
1|------------------------------------------------|
2|------------------------------------------------|
3|------7p6--6------------7---7--7-7--------------|
4|-------------7-7---7-7--7---7--7-7--7-7---7-7-7-|
5|-9----------------------5---5--5-5--7-7---7-7-7-|
6|-7----------------------------------5-5---5-5-5-|

1|---------------------------------------------------------|
2|---------------------------------------------------------|
3|---------------------------------------------------------|
4|------12-11---11s7-------------------------------------0-|
5|------------------------7s9---7-7--5-7-7s9s7------s7-----|
6|-7-------------------------------------------5---5-------|

1|-------------------------------------------------|
2|-------------------------------------------------|
3|-------------------------------------------------|
4|-7h9p7---7h9p7-----------------------------------|
5|---------------9-7--5-7s9s7----------7-----------|
6|----------------------------5------5----5h7------|


1|---------------------------------------------------------|
2|---------------------------------------------------------|
3|---------------------------------------------------------|
4|------12-11---11s7-----------------------------------0---|
5|------------------------5---7--7s9-7-7-----5-------------|
6|-7-------------------7-----------------------------------|

========To All of you======
Tuning: Whole Step Down DGCFAD
Main Riff
1|-----------------------------------------|
2|-----------------------------------------|
3|-----------------------------------------|
4|-5-----9-----7-----2--4------5----4--0---|
5|-7--5--7-----7--10-3--5------7----5--5---|
6|-0--7--8-----8---8-5--7------8-----------|

Riff2
-----------|-----------|----------------------------------------------------
-----------|-----------|----------------------------------------------------
-----------|-----------|----------------------------------------------------
---7-6-5---|----7-6-5~-|-3-5/7-5-3----3/5-5---5-----5----3------------------
-5---------|--5--------|-----------5--------3----2----1---------------------
-----------|-----------|----------------------------------------------------

Interlude
1|---------------------------------------------------|
2|---------------------------------------------------|
3|---------------------------------------------------|
4|------77777777--55555555---------------------------|
5|---------------------------------------------------|
6|---------------------------------------------------|

----------------------------------------------------------------------------
----------------------------------------------------------------------------
----------------------------------------------------------------------------
---77777777-55555555-33333333--5h7-5h7-5h7-5h7-5h7-5h7-5h7-5h7--------------
----------------------------------------------------------------------------
----------------------------------------------------------------------------

======Half Way House=====
Hidden Track on 9
Tuning: Whole Step Down DGCFAD
Intro guitar1
1|---------------------------------------|
2|---------------------------------------|
3|-3-------------------2-----------------|
4|-5-------------------3-----------------|
5|-5-------------------3-----------------|
6|-3-------------------1-----------------|
Guitar2
--------------------------------------------------------------------------
--------------------------------------------------------------------------
--------------------------------------------------------------------------
-----3/5-5/8-7-5\3--------------------3/5------/8---7---5\3---------------
--------------------------------------------------------------------------
--------------------------------------------------------------------------

1|----------------------------------------------------------------|
2|----------------------------------------------------------------|
3|----------------------------------------------------------------|
4|----------------------------3--------3/5-5/8--7\3---------------|
5|----------------------------------------------------------------|
6|----------------------------------------------------------------|

Verse Guitar2
----------------------------------------------------------------------------
---------7-6-----------------11------9----------7-6-----------------11----9-
-----6-------8--6-------8----8-----8--------6-------8--6-------8----8-----8-
-8-----8----------8--6----6-------------8-----8----------8--6----6----------
----------------------------------------------------------------------------
----------------------------------------------------------------------------

Guitar1
----------------------------------------------------------------------------
----------------------------------------------------------------------------
----------------------------------------------------------------------------
----------------------------------------------------------------------------
-5------------5-1--3----------3-1-------5------------5-1--3-------3-1-1/5---
-3--3-6-3-6-3------1--------------------3--3-6-3-6-3------1-----------------

Interlude
1|-15-15-15--18-17-15-13-11-10-6-8-8/10-6------|
2|---------------------------------------------|
3|---------------------------------------------|
4|---------------------------------------------|
5|---------------------------------------------|
6|---------------------------------------------|

Pre-Chorus Guitar2
----------------------------------------------------11-9-11-11h13p11-9-8----
-------------------11-------------------11-11h13----------------------------
-------------------------------------------------------------------------13-
----------------------------------------------------------------------------
----------------------------------------------------------------------------
----------------------------------------------------------------------------

Chorus Guitars1 and 2
1|---------------------------------------|
2|---------------------------------------|
3|---------------------------------------|
4|---------------------------------------|
5|-8----------8----8---4----------4----4-|
6|-6----------6----6---2----------2----2-|

--------------------------
--------------------------
--------------------------
--------------------------
-8----------8----8---9----
-6----------6----6---7----  x4


Questions Comments AIM: Misfits3388

Thanks:)
Comments