Cky - Attatched At The Hip Chords & Tabs

 

Attatched At The Hip Chords & Tabs

Cky Chords & Tabs

Version: 1 Type: Tab 0 ratings
1 star 2 stars 3 stars 4 stars 5 stars
comments

Attatched At The Hip Tab

   
-------------------------------------------------------------------------------
			     ATTATCHED AT THE HIP - CKY
-------------------------------------------------------------------------------
Tabbed by: ZachLaz
Email:

Tuning: Standard

Intro:

e|-----------------------------------------------------------------------------|
B|-----------------------------------------------------------------------------|
G|-----------------------------------------------------------------------------|
D|-8-8-8-8-8-8-8-8---6---6------------8-8-8-8-8-8-8-8---6---6------------------|
A|-x-x-x-x-x-x-x-x-8---8---6-4---4/6--x-x-x-x-x-x-x-x-8---8---6-4---4/6--------|
E|-6-6-6-6-6-6-6-6-------------4------6-6-6-6-6-6-6-6-------------4------------|

e|-----------------------------------------------------------------------------|
B|-----------------------------------------------------------------------------|
G|-----------------------------------------------------------------------------|
D|-8-8-8-8-8-8-8-8---6---6------------8-8-8-8-8-8-8-8---6----------------------|
A|-x-x-x-x-x-x-x-x-8---8---6-4---4/6--x-x-x-x-x-x-x-x-8---8-6-6-4--4/6---------|
E|-6-6-6-6-6-6-6-6-------------4------6-6-6-6-6-6-6-6-------------4------------|

Verse:

PM
e|-----------------------------------------------------------------------------|
B|-----------------------------------------------------------------------------|
G|-----------------------------------------------------------------------------|
D|-8-8---8-8-8-8---8-8---8-8-8-8---8-8---8-8-8-8---8-8--8-8-8-8----------------|
A|-x-x---x-x-x-x---x-x---x-x-x-x---x-x---x-x-x-x---x-x---x-x-x-x---------------|
E|-6-6---6-6-6-6---6-6---6-6-6-6---6-6---6-6-6-6---6-6---6-6-6-6---------------|

e|-----------------------------------------------------------------------------|
B|-----------------------------------------------------------------------------|
G|-----------------------------------------------------------------------------|
D|-8-8-8-8-8-8-8-8-8-8-8-8-8-----8-8-8-8-8-8-8-8-8-8-8-8-8---------------------|
A|-x-x-x-x-x-x-x-x-x-x-x-x-x-----x-x-x-x-x-x-x-x-x-x-x-x-x---------------------|
E|-6-6-6-6-6-6-6-6-6-6-6-6-6-----6-6-6-6-6-6-6-6-6-6-6-6-6---------------------|

e|-----------------------------------------------------------------------------|
B|-----------------------------------------------------------------------------|
G|-----------------------------------------------------------------------------|
D|-8-8-8-8-8-8-8-8-8-8-8-8-8-----8-8-8-8-8-8-8-8-8-8-8-8-8---------------------|
A|-x-x-x-x-x-x-x-x-x-x-x-x-x-----x-x-x-x-x-x-x-x-x-x-x-x-x---------------------|
E|-6-6-6-6-6-6-6-6-6-6-6-6-6-----6-6-6-6-6-6-6-6-6-6-6-6-6---------------------|

Bridge: (Intro Riff):

e|-----------------------------------------------------------------------------|
B|-----------------------------------------------------------------------------|
G|-----------------------------------------------------------------------------|
D|-8-8-8-8-8-8-8-8---6---6------------8-8-8-8-8-8-8-8---6---6------------------|
A|-x-x-x-x-x-x-x-x-8---8---6-4---4/6--x-x-x-x-x-x-x-x-8---8---6-4---4/6--------|
E|-6-6-6-6-6-6-6-6-------------4------6-6-6-6-6-6-6-6-------------4------------|

e|-----------------------------------------------------------------------------|
B|-----------------------------------------------------------------------------|
G|-----------------------------------------------------------------------------|
D|-8-8-8-8-8-8-8-8---6---6------------8-8-8-8-8-8-8-8---6----------------------|
A|-x-x-x-x-x-x-x-x-8---8---6-4---4/6--x-x-x-x-x-x-x-x-8---8-6-6-4--4/6---------|
E|-6-6-6-6-6-6-6-6-------------4------6-6-6-6-6-6-6-6-------------4------------|

Verse:

PM
e|-----------------------------------------------------------------------------|
B|-----------------------------------------------------------------------------|
G|-----------------------------------------------------------------------------|
D|-8-8---8-8-8-8---8-8---8-8-8-8---8-8---8-8-8-8---8-8--8-8-8-8----------------|
A|-x-x---x-x-x-x---x-x---x-x-x-x---x-x---x-x-x-x---x-x---x-x-x-x---------------|
E|-6-6---6-6-6-6---6-6---6-6-6-6---6-6---6-6-6-6---6-6---6-6-6-6---------------|

e|-----------------------------------------------------------------------------|
B|-----------------------------------------------------------------------------|
G|-----------------------------------------------------------------------------|
D|-8-8-8-8-8-8-8-8-8-8-8-8-8-----8-8-8-8-8-8-8-8-8-8-8-8-8---------------------|
A|-x-x-x-x-x-x-x-x-x-x-x-x-x-----x-x-x-x-x-x-x-x-x-x-x-x-x---------------------|
E|-6-6-6-6-6-6-6-6-6-6-6-6-6-----6-6-6-6-6-6-6-6-6-6-6-6-6---------------------|
[ Tab from: http://www.guitartabs.cc/tabs/c/cky/attatched_at_the_hip_tab.html ]
e|-----------------------------------------------------------------------------|
B|-----------------------------------------------------------------------------|
G|-----------------------------------------------------------------------------|
D|-8-8-8-8-8-8-8-8-8-8-8-8-8-----8-8-8-8-8-8-8-8-8-8-8-8-8---------------------|
A|-x-x-x-x-x-x-x-x-x-x-x-x-x-----x-x-x-x-x-x-x-x-x-x-x-x-x---------------------|
E|-6-6-6-6-6-6-6-6-6-6-6-6-6-----6-6-6-6-6-6-6-6-6-6-6-6-6---------------------|

Chorus:

e|-----------------------------------------------------------------------------|
B|-----------------------------------------------------------------------------|
G|-----------------------------------------------------------------------------|
D|-8-----12-12-4-4-6-----12-12-10-10--8-----12-12-4-4-6----12-12-10-10-8-------|
A|-8-----12-12-4-4-6-----12-12-10-10--8-----12-12-4-4-6----12-12-10-10-8-------|
E|-6-----10-10-2-2-4-----10-10--8--8---6----10-10-2-2-4----10-10-8--8--6-------|

e|-----------------------------------------------------------------------------|
B|-----------------------------------------------------------------------------|
G|-----------------------------------------------------------------------------|
D|-8-----12-12-4-4-6-----12-12-10-10--8-----12-12-4-4-6----12-12-10-10-8-------|
A|-8-----12-12-4-4-6-----12-12-10-10--8-----12-12-4-4-6----12-12-10-10-8-------|
E|-6-----10-10-2-2-4-----10-10--8--8--6-----10-10-2-2-4-----10-10-8--8--6------|

Bridge (Intro Riff):

e|-----------------------------------------------------------------------------|
B|-----------------------------------------------------------------------------|
G|-----------------------------------------------------------------------------|
D|-8-8-8-8-8-8-8-8---6---6------------8-8-8-8-8-8-8-8---6---6------------------|
A|-x-x-x-x-x-x-x-x-8---8---6-4---4/6--x-x-x-x-x-x-x-x-8---8---6-4---4/6--------|
E|-6-6-6-6-6-6-6-6-------------4------6-6-6-6-6-6-6-6-------------4------------|

e|-----------------------------------------------------------------------------|
B|-----------------------------------------------------------------------------|
G|-----------------------------------------------------------------------------|
D|-8-8-8-8-8-8-8-8---6---6------------8-8-8-8-8-8-8-8---6----------------------|
A|-x-x-x-x-x-x-x-x-8---8---6-4---4/6--x-x-x-x-x-x-x-x-8---8-6-6-4--4/6---------|
E|-6-6-6-6-6-6-6-6-------------4------6-6-6-6-6-6-6-6-------------4------------|

2nd Bridge (Basically the same as the verse)

PM
e|-----------------------------------------------------------------------------|
B|-----------------------------------------------------------------------------|
G|-----------------------------------------------------------------------------|
D|-8-8---8-8-8-8---8-8---8-8-8-8---8-8---8-8-8-8---8-8--8-8-8-8----------------|
A|-x-x---x-x-x-x---x-x---x-x-x-x---x-x---x-x-x-x---x-x---x-x-x-x---------------|
E|-6-6---6-6-6-6---6-6---6-6-6-6---6-6---6-6-6-6---6-6---6-6-6-6---------------|

The rest is synth/effects until the chorus.

Chorus:

e|-----------------------------------------------------------------------------|
B|-----------------------------------------------------------------------------|
G|-----------------------------------------------------------------------------|
D|-8-----12-12-4-4-6-----12-12-10-10--8-----12-12-4-4-6----12-12-10-10-8-------|
A|-8-----12-12-4-4-6-----12-12-10-10--8-----12-12-4-4-6----12-12-10-10-8-------|
E|-6-----10-10-2-2-4-----10-10--8--8---6----10-10-2-2-4----10-10-8--8--6-------|

e|-----------------------------------------------------------------------------|
B|-----------------------------------------------------------------------------|
G|-----------------------------------------------------------------------------|
D|-8-----12-12-4-4-6-----12-12-10-10--8-----12-12-4-4-6----12-12-10-10-8-------|
A|-8-----12-12-4-4-6-----12-12-10-10--8-----12-12-4-4-6----12-12-10-10-8-------|
E|-6-----10-10-2-2-4-----10-10--8--8--6-----10-10-2-2-4-----10-10-8--8--6------|

Intro Riff till end.

e|-----------------------------------------------------------------------------|
B|-----------------------------------------------------------------------------|
G|-----------------------------------------------------------------------------|
D|-8-8-8-8-8-8-8-8---6---6------------8-8-8-8-8-8-8-8---6---6------------------|
A|-x-x-x-x-x-x-x-x-8---8---6-4---4/6--x-x-x-x-x-x-x-x-8---8---6-4---4/6--------|
E|-6-6-6-6-6-6-6-6-------------4------6-6-6-6-6-6-6-6-------------4------------|

e|-----------------------------------------------------------------------------|
B|-----------------------------------------------------------------------------|
G|-----------------------------------------------------------------------------|
D|-8-8-8-8-8-8-8-8---6---6------------8-8-8-8-8-8-8-8---6----------------------|
A|-x-x-x-x-x-x-x-x-8---8---6-4---4/6--x-x-x-x-x-x-x-x-8---8-6-6-4--4/6---------|
E|-6-6-6-6-6-6-6-6-------------4------6-6-6-6-6-6-6-6-------------4------------|

That's all.  You will have to listen to it to get they rythem right.  Good Luck!

| /  slide up
| \  slide down
| h  hammer-on
| p  pull-off
| ~  vibrato
| +  harmonic
| x  Mute note
===============================================================================
Comments