Cky - 96 Quite Bitter Beings Chords & Tabs

 

96 Quite Bitter Beings Chords & Tabs

Cky Chords & Tabs

Version: 2 Type: Tab 6 ratings
1 star 2 stars 3 stars 4 stars 5 stars
comments

96 Quite Bitter Beings Tab

   
Cky - 96 Quite Bitter Beings

Tuning (Low To High): Eb,Ab.Db,Gb,Bb,Eb

Note: Use Strict Alternate Picking Throughout To Maintain Speed

Intro (x4)

e|-------------------------------------------------------------|
B|-------------------------------------------------------------|
G|-------------------------------------------------------------|
D|--------9-----------9-10-9--------------10/12-10-9------9----|
A|-----10----------10--------10-9------10------------10-9---10-|
E|--12-------0--12----------------10-8-------------------------|

Verse (x6)
[ Tab from: http://www.guitartabs.cc/tabs/c/cky/96_quite_bitter_beings_tab_ver_2.html ]
e|-------------------------|
B|-------------------------|
G|-----------------5--5--5-|
D|--2--2--2--x--5--5--5--5-|
A|--2--2--2--x--5--3--3--3-|
E|--0--0--0--x--3----------|

Chorus (x4)

e|-------------------------------------------------------------|
B|-------------------------------------------------------------|
G|-------------------------------------------------------------|
D|--------9-----------9-10-9--------------10/12-10-9------9----|
A|-----10----------10--------10-9------10------------10-9---10-|
E|--12-------0--12----------------10-8-------------------------|

Verse (x6)

e|-------------------------|
B|-------------------------|
G|-----------------5--5--5-|
D|--2--2--2--x--5--5--5--5-|
A|--2--2--2--x--5--3--3--3-|
E|--0--0--0--x--3----------|


Comments