Cky - 96 Quite Bitter Beings Chords & Tabs

 

96 Quite Bitter Beings Chords & Tabs

Cky Chords & Tabs

Version: 1 Type: Tab 1 rating
1 star 2 stars 3 stars 4 stars 5 stars
comments

96 Quite Bitter Beings Tab

   
96 Quite Bitter Beings -- Camp Kill Yourself
Tuned down one half step (low to high: Eb Ab Db Gb Bb Eb)
By: Mike DeFalco
E-Mail Questions To: leet_strat@yahoo.com

Main Riff
----------------------------------------------------------
----------------------------------------------------------
----------------------------------------------------------
-----9------------9-10-9------------10/12-10-9-7-----9----
-7-10---7-----7-10------10-9-----10--------------10----10-
-0------0-----0---------------8---------------------------
[ Tab from: http://www.guitartabs.cc/tabs/c/cky/96_quite_bitter_beings_tab.html ]
Verse
Guitar 1
--------------------------
--------------------------
--------------------------
-2--2--2------6--6--6-----
-2--2--2------4--4--4-----
-0--0--0----0-4--4--4-----

Guitar 2
--------------------------
--------------------------
--------------------------
-9--9--9------6--6--6-----
-7--7--7------4--4--4-----
-0--0--0----0-------------

Bridge 1

-0-0-0-0-0-0
-0-0-0-0-0-0
-0-0-0-0-0-0
-9-9-9-9-7-7
-7-7-7-7-5-5
-0-0-0-0-0-0

Bridge 2

-------------------------------------------------
-------------------------------------------------
-------------------------------------------------
-7--7--7--12\7-9--2--2----5--5--5--12\7-9--2--2--
-5--5--5--10\5-7--2--2----3--3--3--10\5-7--2--2--
------------------0--0--0------------------0--0--

-sTraT-
Comments