Cky - 96 Quite Bitter Beings Chords & Tabs

 

96 Quite Bitter Beings Chords & Tabs

Cky Chords & Tabs

Version: 3 Type: Bass Tab 0 ratings
1 star 2 stars 3 stars 4 stars 5 stars
comments

96 Quite Bitter Beings Bass Tab

real easy version for paul




intro


------------------------------------------
---9--------------------------------------
-7---7-7-7-7-7-7----10/12-10------10/12-10
-----------------8-8----------7-7---------



verse

[ Tab from: http://www.guitartabs.cc/tabs/c/cky/96_quite_bitter_beings_btab_ver_3.html ]
-------------------------------------
-------------------------------------
------------4-4-4------------4-4-4---
-0-0-0----0---------0-0-0--0---------



break

----------------------------------
-------5----------------5---------
-5-5-5---5-7-7-7---3-3-3-5-7-7----
------------------------------0---
Comments