Ckoozies - Nowhere Usa Chords & Tabs

 

Nowhere Usa Chords & Tabs

Ckoozies Chords & Tabs

Version: 2 Type: Bass Tab 0 ratings
1 star 2 stars 3 stars 4 stars 5 stars
comments

Nowhere Usa Bass Tab

-------------------------------------------------------------------------------
			     Nowhere, USA - Push Pipe
-------------------------------------------------------------------------------

By:Jake (Of Push Pipe)

Intro

G|---------------------------------------------------------------------------|
D|---------------------------------------------------------------------------|
A|------7-7-7-9-9-9-9-7-7---x2-----------------------------------------------|
E|--7-7----------------------------------------------------------------------|


Verse
[ Tab from: http://www.guitartabs.cc/tabs/c/ckoozies/nowhere_usa_btab_ver_2.html ]
G|-----------------------------------------(---------------------------------|
D|-----------------------------------------(---------------------------------|
A|-----7-7-7-7-----9-9-7---7-7-9-9-9-9-7-7-(-----7-7-7--9-9-9-9-7-7--x2------|
E|7-7-7-------7-7-7-----7-7----------------(7-7-7----------------------------|


Chorus

G|---------------------------------------------------------------------------|
D|---------------------------------------------------------------------------|
A|-----7-7-9-9-9-9-9-9-----7-7-9-9-9-9-9-9-----7-7-9-9-9-----9-9-------------|
E|-7-7-----------------7-7-----------------7-7-----------7-7-----7-----------|


Order:
Intro
Verse
Verse
Chorus
Solo
Verse
Verse
Chorus
Chorus
Chorus
Comments