Ciudad - Untitled Chords & Tabs

 

Untitled Chords & Tabs

Ciudad Chords & Tabs

Version: 1 Type: Tab

Untitled Tab

Untitled - ciudad

riff1
e----------------------------------------|
B----------------------------------------|
G------5-----------5----------2h3p2------|
D---------3---3-------3---3---------3p0--| 
A---1-------1---1-------1----------------|
E---------------------------3------------|

riff2
e---------------------------------------------------------|
B---------------------------------------------------------|
G------5-----------5--------------3----------3------------|
D--------3---3--------(3)---(3)------3---3-----(3)---(3)--|
A---1------1----1--------(1)------------------------------|
E-------------------------------3------3---3------(3)-----|
[ Tab from: http://www.guitartabs.cc/tabs/c/ciudad/untitled_tab.html ]
riff3
e----------------------------------------|
B------6-6---6---6-------7----7-6---6----|
G---------------------------------7------|
D----------------------------------------|
A---6------6---6---6\-7-----7-7----------|
E----------------------------------------|


INTRO:  (riff 1) 2x

VERSE1: (riff 2) 4x
Coz' i'm home for the season
and i'm tired and i'm low 
Now you've gone for no reason
there's nowhere else for me to go
	(riff 3) 1x
so i'm waitin'.....

ADLIB:  (do intro)

VERSE2: (riff 2) 4x
Coz' i'm home for the season
and i'm tired and i'm low
Now you've gone for no reason
there's nowhere else for me to go
	(riff 3) 1x
so i'm waitin'.....

ADLIB:  (riff2) 1x

	(riff 3) 1x
if i'm going away......

ADLIB:  (riff2) 1x

	(riff 3) 1x     
if i'm packing my things i'm taking you with me.