City To City - The Road Ahead Chords & Tabs

 

The Road Ahead Chords & Tabs

City To City Chords & Tabs

Version: 1 Type: Tab 0 ratings
1 star 2 stars 3 stars 4 stars 5 stars
comments

The Road Ahead Tab

   
City to City – The Road Ahead – guitar 1

Intro:
E |-------7-------|
B |---------7-----|
G |*----8-----8--*| 4x
D |*------------9*|
A |---9-----------|
E |-7-------------|

Verse 1:
E |-------7-------|-------2-------| \
B |---------7-----|---------2-----|  \
G |*----8-----8--*|*----3-----3--*|   \
D |*------------9*|*------------4*|   / repeat once
A |---9-----------|---4-----------|  /
E |-7-------------|-2-------------| /

E |-------7-------|-------4-------|-------4-------|-------2-------|
B |---------7-----|---------4-----|---------5-----|---------2-----|
G |*----8-----8--*|*----4-----4--*|*----6-----6--*|*----3-----3--*|
D |*------------9*|*------------6*|*--6---------6*|*------------4*|
A |---9-----------|---6-----------|-4-------------|---4-----------|
E |-7-------------|-4-------------|---------------|-2-------------|

Verse 2: repeat verse 1

Chorus:
E |-------0-------|-------7-------|
B |---------0-----|---------7-----|
G |*----1-----1--*|*----8-----8--*|
D |*------------2*|*------------9*|
A |---2-----------|---9-----------|
E |-0-------------|-7-------------|

E |-------0-------|-------4-------|-------2-------|
B |---------1-----|---------5-----|---------2-----|
G |*----1-----1--*|-----6-----6---|-----3-----3---|
D |*------------2*|---6---------6-|-------------4-|
A |---2-----------|-4-------------|---4-----------|
E |-0-------------|---------------|-2-------------|

Verse 3:
E |-------7-------|-------2-------| \
B |---------7-----|---------2-----|  \
G |*----8-----8--*|*----3-----3--*|   \
D |*------------9*|*------------4*|   / repeat once
A |---9-----------|---4-----------|  /
E |-7-------------|-2-------------| /

E |-------7-------|-------4-------|-------2-------|-------2-------|
B |---------7-----|---------4-----|---------2-----|---------4-----|
G |*----8-----8--*|*----4-----4--*|-----3-----3---|-----3-----4---|
D |*------------9*|*------------6*|-------------4-|-------------4-|
A |---9-----------|---6-----------|---4-----------|---4-----------|
E |-7-------------|-4-------------|-2-------------|-2-------------|

Chorus:
E |-------0-------|-------7-------| \
B |---------0-----|---------7-----|  \ 
G |*----1-----1--*|*----8-----8--*|   \
D |*------------2*|*------------9*|   / 3x
A |---2-----------|---9-----------|  /
E |-0-------------|-7-------------| /


E |-------4-------|-------4-------|-------6-------|-------2-------|
B |---------5-----|---------4-----|---------7-----|---------2-----|
G |*----6-----6--*|*----4-----4--*|-----8-----8---|-----3-----3---|
D |*--6---------6*|*------------6*|---8---------8-|-------------4-|
A |-4-------------|---6-----------|-6-------------|---4-----------|
E |---------------|-4-------------|---------------|-2-------------|

Verse:
E |-------7-------|-------2-------| \
B |---------7-----|---------2-----|  \
G |*----8-----8--*|*----3-----3--*|   \
D |*------------9*|*------------4*|   / repeat once
A |---9-----------|---4-----------|  /
E |-7-------------|-2-------------| /

E |-------7-------|-------4-------|-------4-------|
B |---------7-----|---------4-----|---------5-----|
G |*----8-----8--*|*----4-----4--*|*----6-----6--*|
D |*------------9*|*------------6*|*--6---------6*|
A |---9-----------|---6-----------|-4-------------|
E |-7-------------|-4-------------|---------------|
[ Tab from: http://www.guitartabs.cc/tabs/c/city_to_city/the_road_ahead_tab.html ]
Outro:
E |-------7-------|
B |---------7-----|
G |*----8-----8--*| repeat and fade out
D |*------------9*|
A |---9-----------|
E |-7-------------|


City to City - The Road head – Guitar 2

The second guitar starts at the first chorus and plays CLEAN STRUMMED CHORDS:

...Chorus:
E                                 B
The road ahead never gives away a promise
E                                          C#m      B/F#      F#      B
The road ahead is a highway or a dead end street (a dead end street....)


Verse:
B                     F#
   Raindrops on your windscreen
     B                          F#
They fall, from heaven or from hell
    B                             G#m
You drive into the light or into darkness
                     F#  DISTORTION!!LET CHORDS RING!!: B/Eb
Uncertainty as your guide


Chorus:
E                              B
The road ahead will never give away a promise         oooh oh ooh
E                                         B
The road ahead is a highway on a dead end street	Whoo oh
E                                B
The road ahead never answers any questions
               C#m                          G#m
And nothing is sure along the way, not even tomorrow
     Ebm            F#                B
With miles of the unknown ahead of you______


Verse: DISTORTION OFF! (B chord is still ringing at the first time)
E |------(7)------|-------2-------| \
B |--------(7)----|---------2-----|  \
G |*---(8)---(8)-*|*----3-----3--*|   \ 
D |*-----------(9)|*------------4*|   / repeat once
A |--(9)----------|---4-----------|  /
E |(7)------------|-2-------------| /

E |-------7-------|-------4-------|-------4-------|
B |---------7-----|---------4-----|---------5-----|
G |*----8-----8--*|*----4-----4--*|*----6-----6--*|
D |*------------9*|*------------6*|*--6---------6*|
A |---9-----------|---6-----------|-4-------------|
E |-7-------------|-4-------------|---------------|

Outro:
E |-------7-------|
B |---------7-----|
G |*----8-----8--*| repeat and fade out
D |*------------9*|
A |---9-----------|
E |-7-------------|


_________________________________________________
                   Lyrics : 
_________________________________________________
        The road ahead - City To City
_________________________________________________

The road ahead is empty
It’s paved with miles of the unknown
Whatever seems to be your destination
Take life the way it comes, take life the way it is

Horizon in the distance
So close and yet so far away
You shouldn’t be surprised when on arrival
The dream has flown away and fears not here to stay

The road ahead never gives away a promise
The road ahead is a highway or a dead end street
A dead end street

Raindrops on your windscreen
They fall from heaven or from hell
You drive into the light or into darkness
Uncertainty as your guide

The road ahead will never give away a promise
Oh oh, the road ahead is a highway or a dead end street
Woh oh, the road ahead never answers any questions
And nothing is shown along the way, not even tomorrow
With miles of the unkown ahead of you

The road ahead is empty
It’s paved with miles of the unknown
Whatever seems to be your destination
Take life the way it comes, take life the way it is
Comments