City To City - The Road Ahead Chords & Tabs

 

The Road Ahead Chords & Tabs

City To City Chords & Tabs

Version: 1 Type: Bass Tab 0 ratings
1 star 2 stars 3 stars 4 stars 5 stars
comments

The Road Ahead Bass Tab

City to City  The Road Ahead
Note: the bass starts after the intro (4 bars)

Verse:
G|---------|---------|---------|---------| 
D|---------|---------|---------|---------| 
A|-2---2---|---------|-2---2---|---------|
E|---------|-2---2---|---------|-2---2---|

G|-------------|-----------------|------------|----------|
D|-------------|------8-6--------|------------|----------|
A|-2----2--2-1-|----6------6-6---|-4----6--4--|----------|
E|----2--------|-4-------------4-|----4-------|-2--2-2---|

G|------4-----|----------|----------|------------|
D|------------|----------|----4-----|------4-----|
A|-2--2----2--|----4-----|-2----2---|----4-------|
E|------------|-2----2---|----------|-2-------2--|

G|-----4--4-3-|----------|----------------|----------|
D|---4--------|-6--------|----------------|----------|
A|-2----------|----6-----|-4----6-4--4-4--|----------|
E|------------|------4---|----4-----------|-2--2-2---|

Chorus:
G|--------------|---------------|--------------|-----------|
D|--------------|---------------|--------------|------4----|
A|--------------|-2----2--4-2---|------7--\----|-4--4------|
E|-0--0-0--2-2--|----2--------2-|-0--0-----2-4-|-----------|

Verse:
G|-------------|-----------|---------------|----------|
D|-------------|-----------|---------------|----------|
A|-2----2-/6-7-|-9--\4-----|-----------6-7-|-9--\-----|
E|----2--------|------2--2/|-7--7-7--7-----|-----2--2-|
[ Tab from: http://www.guitartabs.cc/tabs/c/city_to_city/the_road_ahead_btab.html ]
G|------4--4-3-|----------------|-----------|
D|----4--------|-6----6---------|------4--1-|
A|-2-----------|----6---6-----6-|----4------|
E|-------------|----------4-----|-2---------|

Chorus:
G|-------------|------4--6-4-|-----------|-----4--6-4------|
D|------2--4-2-|----4--------|-----2-----|---4--------6-4--|
A|----2--------|-2-----------|---2-------|-2---------------|
E|-0-----------|-------------|-0-----0-2-|-----------------|

G|-----------|--------9-8-----|-----------------|---------------|
D|-----------|-----9------9---|-----------------|-----6-8-6-----|
A|-----7-9-7-|---9----------9-|---11------------|---6-------6---|
E|-0-7-------|-7--------------|-9----9-11-9-7-6-|-4-----------4-|

G|------------|
D|------------|
A|-6--6/9--\--|
E|----------2-|
Verse:
G|---------|---------|---------|---------|
D|---------|---------|---------|---------|
A|-2---2---|---------|-2---2---|---------|
E|---------|-2---2---|---------|-2---2---|

G|------------|---------|-----8--6-------|
D|------------|------6--|---6------------|
A|-2----2--2-1|----6----|-4--------4-4-3-|
E|----2-------|-4-------|----------------|

Outro:
G|----------|----------|----------|-----------|
D|----------|--------4-|----------|-----------|
A|-2--2-2---|-2--2-2---|-2--2-2---|-2--2-2----|
E|----------|----------|----------|---------2-|

G|----------|----------|----------|----------|------|
D|----------|--------4-|----------|----------|------|
A|-2--2-2---|-2--2-2---|-2--2-2---|-2--2-2---|-2----|
E|----------|----------|--------2-|--------2-|------|
Comments