City And Colour - Urgency Chords & Tabs

 

Urgency Chords & Tabs

City And Colour Chords & Tabs

Version: 1 Type: Tab 0 ratings
1 star 2 stars 3 stars 4 stars 5 stars
comments

Urgency Tab

Dallas Green
The Urgency

[----------------------------------------------|
[----------------------------------------------|
[----------------------------------------------|     x5
[----------------------------------------------|
[--6-5-5-6-5-5-5-5-5-6-6-6-6-6-6-6-6-6-6-6-6-6-|
[--4-3-3-4-3-3-3-3-3-4-4-4-4-4-4-4-4-4-4-4-4-4-|
(PM).................................................................................
              On fifth time release palm mute and play


[-------------------------------------|
[-------------------------------------|
[-------------------------------------|
[-------------------------------------| x4
[--5555--55-555555-55-6666-666666666--|
[--3333--33-333333-33-4444-444444444--|


Then Intro

[------------------------------|
[------------------------------|
[------------------------------|
[------------------------------|
[-10101010 -8888---666(6)------|
[-8-8-8 8-----6666---444(4)----|
             "Holding all the weight in my life"

       sort of tap the guitar to give the drum beat he does


[-------------------------------|
[-------------------------------|
[-------------------------------|
[-------------------------------|
[-10101010 -8888---131313(13)---|
[-8-8-8 8-----6666---111111(11)-|
        "Now you turn and walk away from me"


slide the last one into the intro/ opening verse

[----------------------------------------|
[----------------------------------------|
[----------------------------------------|
[----------------------------------------| x5
[--5555--55-555555-55-6666-666666666-----|
[--3333--33-333333-33-4444-444444444-----|
    "So what is this now you ask of me......."

[ Tab from: http://www.guitartabs.cc/tabs/c/city_and_colour/urgency_tab.html ]
[-------------------------------|
[-------------------------------|
[-------------------------------|
[-------------------------------|
[-10101010 -8888---666(6)-------|
[-8-8-8 8-----6666---444(4)-----|
          "Holding all the weight in my life"

                       Don't tap this time


[--------------------------------|
[--------------------------------|
[--------------------------------|
[--------------------------------|
[-10101010 -8888---131313(13)----|
[-8-8-8 8-----6666---111111(11)--|
         "Now you turn and walk away from me"


                          On last time play


[------------------------------------------------------------|
[------------------------------------------------------------|
[------------------------------------------------------------|
[------------------------------------------------------------|
[-10101010 -8888---131313(13)--13-13-13-13-13-13-13-13-------|
[-8-8-8 8-----6666---111111(11)--11-11-11-11-11-11-11-11-----|


[------------------------------------|
[------------------------------------|
[------------------------------------|
[------------------------------------|
[-10101010 -8888---666666666666------|
[-8-8-8 8-----6666---444444444444----|


[---------------------------------------------------------|
[---------------------------------------------------------|
[---------------------------------------------------------|
[---------------------------------------------------------|
[-10101010 -8888---131313(13)--13-13-13-13-13-13-13-13----|
[-8-8-8 8-----6666---111111(11)--11-11-11-11-11-11-11-11--|

Continue doing those until he lets it ring again.


[---------------------------|
[---------------------------|
[---------------------------|
[---------------------------| x3
[-10101010 -8888---666(6)---|
[-8-8-8 8-----6666---444(4)-|

      End on this.
[-------------------------------|
[-------------------------------|
[-------------------------------|
[-------------------------------|
[-10101010 -8888---131313(13)---|
[-8-8-8 8-----6666---111111(11)-|
Comments