City And Colour - This Sudden Injury Chords & Tabs

 

This Sudden Injury Chords & Tabs

City And Colour Chords & Tabs

Version: 1 Type: Tab 0 ratings
1 star 2 stars 3 stars 4 stars 5 stars
comments

This Sudden Injury Tab

   
PM----------------------------------------
H.. S S E E E E E E E E E E E E E E E E
|---------------|------------------|-----------------|
|---------------|------------------|-----------------|
|---------------|------------------|-----------------|
|-----------x-x-|-6---6-----6----8-|-----8-------8---|
|-----------x-x-|-6-6-6-6-6-6-6--6-|-6-6-6-6-6-6-6-6-|
|-----------x-x-|-4-4-4-4-4-4-4--4-|-4-4-4-4-4-4-4-4-|


----------------------------------|
E E E E E E E E E E Q E E E S S
|-----------------|--------------------|
|-----------------|--------------------|
|-8---8-----8---8-|-----8------8-------|
|-6---6-----6---6-|-----6------6-x-x---|
|-6-6-6-6-6-6-6-6-|-6-6-6--6-6-6-x-x---|
|-4-4-4-4-4-4-4-4-|-4-4-4--4-4-4-x-x---|

[ Tab from: http://www.guitartabs.cc/tabs/c/city_and_colour/this_sudden_injury_tab.html ]
PM------------------------------------------------------------------|
E E E E E E E E E E E E E E E E E E E E E E E E E E E E E E E S S
|-----------------|-----------------|-----------------|--------------------|
|-----------------|-----------------|-----------------|--------------------|
|-----------------|-----------------|-----------------|--------------------|
|-9---9-----9---9-|-----9-----9-9-9-|-9---9-----9---9-|-----9---9-9-9-x-x--|
|-7-7-7-7-7-7-7-7-|-7-7-7-7-7-x-x-x-|-7-7-7-7-7-7-7-7-|-7-7-7-7-7-x-x-x-x--|
|-0-0-0-0-0-0-0-0-|-0-0-0-0-0-9-9-9-|-0-0-0-0-0-0-0-0-|-0-0-0-0-0-9-9-x-x--|


PM--------------------------------------------------------| PM
E E E E E E E E E E E E E E E E E E E E E E E E E E E E E E E +S S
|-----------------|-----------------|-----------------|-----------------------|
|-----------------|-----------------|-----------------|-----------------------|
|-----------------|-----------------|-8---8-----8-----|-8---8---8---8-(8)\----|
|-6---6-----6---8-|-----8-------8---|-6---6-----6-----|-6---6---6---6-(6)\-x--|
|-6-6-6-6-6-6-6-6-|-6-6-6-6-6-6-6-6-|-6-6-6-6-6-6-6-6-|-6-6-6-6-6-6-6-(6)\-x--|
|-4-4-4-4-4-4-4-4-|-4-4-4-4-4-4-4-4-|-4-4-4-4-4-4-4-4-|-4-4-4-4-4-4-4-(4)\-x--|


PM--------------------------------------------------------------|
E E E E E E E E E E E E E E E E E E E E E E E E E E E E E E E E
|-----------------|-----------------|-----------------|-------------------|
|-----------------|-----------------|-----------------|-------------------|
|-----------------|-----------------|-----------------|-------------8-----|
|-9---9-----9---9-|-----9-----9-9-9-|-9---9-----9---9-|-----9---9-9-9-9---|
|-7-7-7-7-7-7-7-7-|-7-7-7-7-7-x-x-x-|-7-7-7-7-7-7-7-7-|-7-7-7-7-7-7-7-7---|
|-0-0-0-0-0-0-0-0-|-0-0-0-0-0-9-9-9-|-0-0-0-0-0-0-0-0-|-0-0-0-0-0-0-0-0---|
Comments