City And Colour - The Grace Chords & Tabs

 

The Grace Chords & Tabs

City And Colour Chords & Tabs

Version: 1 Type: Tab

The Grace Tab

   
----------------------------------------------------------------------------
The Grace - Neverending White Lights feat. Dallas Green
----------------------------------------------------------------------------
Tabbed by: Paul
Email: too_cool_84@hotmail.com

Tuning: Standard

KEY:
 h  hammer-on
 ~  vibrato
 /  slide up

Listen to the song for the rhythm.  It's pretty basic, so it shouldn't take too long.

Intro & Verse- (0:13)

Guitar 1 - Follows a basic strumming pattern with the following chords:

    Asus2      C#m       F#m
e|--0--000----4444----22-22222----------------------------------------------|
B|--0--000----5555----22-22222----------------------------------------------|
G|--2--222----6666----22-22222----------------------------------------------|
D|--2--222----6666----44-44444----------------------------------------------|
A|--0--000----4444----44-44444----------------------------------------------|
E|--------------------------------------------------------------------------|

This pattern repeats throughout all the verses in the song.


Guitar 2 - Also a basic lead role in this song
           (0:21)

e|-----5-4-------5-4------5-4~------5-4------5-4--------5-4~----------------|
B|---5---------5--------5--------5--------5----------5----------------------|
G|-6---------6--------6--------6--------6----------6------------------------|
D|--------------------------------------------------------------------------|
A|--------------------------------------------------------------------------|
E|--------------------------------------------------------------------------|
____________________________________________________________________________

Chorus (1:36)

      E           F#m
e|--00000000---22222222---------------------------------------|
B|--00000000---22222222---------------------------------------|
G|--11111111---22222222---------------------------------------|
D|--22222222---44444444---------------------------------------|
A|--22222222---44444444---------------------------------------|   x 3
E|--00000000--------------------------------------------------|
____________________________________________________________________________

Post Chours (2:00)
Guitar 1
[ Tab from: http://www.guitartabs.cc/tabs/c/city_and_colour/the_grace_tab.html ]
     C#m         F#m
e|-4--44444----2--22222---------------------------------------|
B|-5--55555----2--22222---------------------------------------|
G|-6--66666----2--22222---------------------------------------|
D|-6--66666----4--44444---------------------------------------|
A|-4--44444----4--44444---------------------------------------|   x 4
E|------------------------------------------------------------|


Guitar 2 (2:33)

e|------------5-4------5-4-----5-4~--------5-4-----5-4-----5-4/7~--5-4------|
B|----------5--------5-------5-----------5-------5-------5------------------|
G|-444444h6--------6-------6---------4h6-------6-------6--------------------|
D|--------------------------------------------------------------------------|
A|--------------------------------------------------------------------------|
E|--------------------------------------------------------------------------|

____________________________________________________________________________
I've mapped out the first verse, chorus and post chorus and where chords should
change, just apply it to the rest of the song.  Heres ther lyrics as well!

Lyrics

Asus2     C#m          F#m
In better days I've been known to listen
Asus2     C#m          F#m
I go to waste all my time is missing                 etc.

Asus2         C#m
I'm mapping out my ending,
F#m
it's never gonna happen now
Asus2         C#m
These things are condescending
F#m
with everybody backing down

You pray to stars that they can help you get by
And all at once you forget to try

I'd go there if you let me,
they're never gonna find me now
My life is always empty
and in and out of doubt

E                      F#m
Your not coming back for me, these things they will never be
E                       F#m                       E                   F#m
I'm so used to being wrong, so put me where I belonggggggg....

C#m             F#m               C#m               F#m
I get back to you, God knows I try, but I still lose
C#m             F#m               C#m               F#m
And I get back to you,these days run by, but I still lose


Angels say they can make you suffer
They give and take like a vicious lover

When all this loses meaning,
You'll never want it back somehow
Awake but still I'm dreaming
And never waking up

Your not coming back for me, these things they will never be
I'm so used to being wrong, so put me where I belong

I get back to you,
God knows I try,
but I still lose
And I get back to you,
these days run by,
but I still lose

Alone when im not alone x 2

Alone .... Alone
____________________________________________________________________________
Good Luck, e-mail me if you have an issues/questions.

============================================================================