City And Colour - Save Your Scissors Chords & Tabs

 

Save Your Scissors Chords & Tabs

City And Colour Chords & Tabs

Version: 1 Type: Chords

Save Your Scissors Chords

   
Alright, this is the complete song except for the type of solo that Dallas does on the acoustic
If there is any mistakes e-mail me brett91@hotmail.com

/ = Slide up
Cadd9
E|
B|
G|
D|
A|
E|
----------------------------------------------------------------------
|Intro|
E|-3-2-00-----------3-2-00-----------5-3-2-0-------------------------|
B|--------3-1-0------------3-1-0-------------3-1-0-------------------|
G|--------------2-0--------------2-0---------------2-0---------------|
D|-----------------------------------------------------2/4-2-0-------|
A|-------------------------------------------------------------4-2-0-|
E|-------------------------------------------------------------------|
[ Tab from: http://www.guitartabs.cc/tabs/c/city_and_colour/save_your_scissors_crd.html ]
|Verse|
G                        Cadd9 G                 
So Go On, And I will refrain, And I'll keep on running this never-ending 
Cadd9 G                               Cadd9       G
race. And maybe next time will be the right time, and maybe next time
             Cadd9  G
will be your time.

|Chorus|
Cadd9                              D               Cadd9                   
So save your scissors, for someone else's skin. My surface is so tough I
            D                                Cadd9             D 
don't think the blade will dig in. Save your strength, save your wasted time
 Cadd9                          D
theres no way I want you to be left behind. 
(Play Intro)
Go on and save your scissors..Save Your Scissors
---------------------------------------------------------------------------
Play the verse part, it's the same chords.
Play the Chorus part also.

The Bridge is the same strumming as the Chorus