City And Colour - Like Knives Chords & Tabs

 

Like Knives Chords & Tabs

City And Colour Chords & Tabs

Version: 1 Type: Tab 0 ratings
1 star 2 stars 3 stars 4 stars 5 stars
comments

Like Knives Tab

   
                   Like Knives Intro - City & Colour
-------------------------------------------------------------------------------------------------|
Tabbed by: Brandon Jeffrey
Email: brandonjeffrey@msn.com

Tuning: E,G#,B,F#,B,F#
To Get This Tuning, Go To Casey's Song by Dallas Green, tabbed by        Alex Re-Re. But 
CAPO!


Intro/Verses
f#|---0-0-0--0-0-0-0-0---0-0-0-0-0--0-|
 B|---0-0-0--0-0-0-0-0---0-0-0-0-0--0-|
F#|---0-0-0--0-0-0-0-0---0-0-0-0-0--0-|
 B|---5-5-5-h7-7-7-7-7---0-0-0-0-0--0-|
G#|---0-0-0--0-0-0-0-0---7-7-5-5-5-h7-|
 E|---4-4-4--4-4-4-4-4---0-0-0-0-0--0-|
[ Tab from: http://www.guitartabs.cc/tabs/c/city_and_colour/like_knives_tab.html ]
|-0-0-0-0-0-0-0-0--0--0--0--0--0--0-0-0-0-0--|
|-0-0-0-0-0-0-0-0--0--0--0--0--0--0-0-0-0-0--|
|-5/7-7-7/9-9-9/10-10/12-12\10-10\9-9\7-7\5--|
|-0-0-0-0-0-0-0-0--0--0--0--0--0--0-0-0-0-0--|
|-0-0-0-0-0-0-0-0--0--0--0--0--0--0-0-0-0-0--|

Chorus
e|--0-----0--------|
B|--0-----0--------|
G|--0-----0--------|
D|--7-----5--------|
A|--0-----0--------|
E|--4-----4--------|


That's Pretty Much It, Here's a little something I sometimes add in, in the Chorus:

e|--0-8-7-0--0-8-7-0--|
B|--0--------0--------|
G|--0--------0--------|
D|--7--------5--------|
A|--0--------0--------|
E|--4--------4--------|


I think it goes good with the piano, anyways. Have Fun.

| /  slide up
| \  slide down
| h  hammer-on
| p  pull-off
| ~  vibrato
| +  harmonic
| x  Mute note
===============================================================================
Comments