City And Colour - In The Water I Am Beautiful Chords & Tabs

 

In The Water I Am Beautiful Chords & Tabs

City And Colour Chords & Tabs

Version: 2 Type: Tab 0 ratings
1 star 2 stars 3 stars 4 stars 5 stars
comments

In The Water I Am Beautiful Tab

   
Gtr I (E A D G B E) - 'Untitled'

Q=90
6/8
Gtr I
E. E S E S S S S S S S S S S E S E S
||--0--0-0-0-0-0-0-0-|-0-(0)----------------0----|
||o-0--0-0-0-0-0-0-0-|-0-(0)-----------7---(0)---|
||--4--4-4-4-4-4-4-4-|-4s=7----6h(7)-----7-------|
||--2--2-2-2-2-2-2-2-|-0-(0)-0-------7---------0-|
||o-0--0-0-0-0-0-0-0-|-2s=5--------------------0-|
||-------------------|-------------------------0-|


S E E S S S S S S S S S S S S S S S S S S S
|---------------------|----------------------------------------||
|---------------------|-----------------5p0-------------------o||
|-----------0---------|---------------------(0)-(0)-(0)-(0)----||
|---------------0-----|---------0h(5)-------(0)-(0)-(0)-(0)----||
|---4-4-0-5---4---0---|-5-(5)-x-------x-----(0)-(0)-(0)-(0)---o||
|-2-2-2-------------0-|-0h=3-----------------------------------||


E. E S E S S S S S S S S S S E S E S
||--0--0-0-0-0-0-0-0-|-0-(0)----------------0----|
||o-0--0-0-0-0-0-0-0-|-0-(0)-----------7---(0)---|
||--4--4-4-4-4-4-4-4-|-4s=7----6h(7)-----7-------|
||--2--2-2-2-2-2-2-2-|-0-(0)-0-------7---------0-|
||o-0--0-0-0-0-0-0-0-|-2s=5--------------------0-|
||-------------------|-------------------------0-|


S E E S S S S S S S S S S S S S S S S S S S 4x
|---------------------|-----------------------------------------||
|---------------------|-----------------5p0--------------------o||
|-----------0---------|---------------------(0)-(0)-(0)-(0)-----||
|---------------0-----|---------0h(5)-------(0)-(0)-(0)-(0)-----||
|---4-4-0-5---4---0---|-5-(5)-x-------x-----(0)-(0)-(0)-(0)----o||
|-2-2-2-------------0-|-0h=3------------------------------------||


Q. Q +S S S E S S S Q +S S
|----------------|----------------------|
|------^2--(2)---|-------2h3p0-0--(0)---|
|------^2--(2)---|-------------2--(2)---|
|------^0--(0)---|-------------0--(0)---|
|-0--------------|-0-(0)-------0--(0)-0-|
|-2------------0-|-0h=3--------3--(3)-0-|


S S S S S S E. S S S S S S S S S E. S S S
|-0-(0)-0-0-0-0-0--------|-0-(0)-0-0-0-0-0--------|
|-0-(0)-0-0-0-0-0--------|-0-(0)-0-0-0-0-0--------|
|-4-(4)-4-4-4-4-4--------|-4s=7--7-7-7-6-6--------|
|-0h=2--2-2-2-2-2--2-2-2-|-2s=5--5-5-5-5-5--5-5-5-|
|-0h=2--2-2-2-2-2--2-2-2-|-2s=5--5-5-5-5-5--5-5-5-|
|-0-(0)-0-0-0-0-0--0-0-0-|-0-(0)-0-0-0-0-0--0-0-0-|


Q. Q +S S S Q +S Q +S S
|---------------|----------------------|
|------2--(2)---|-------------0--(0)---|
|------2--(2)---|-------------2--(2)---|
|------0--(0)---|-------------0--(0)---|
|-0-------------|-0-(0)-(0)---0--(0)-0-|
|-2-----------0-|-0h=3--(3)---3--(3)-0-|


S S S S S S E. S S S S S S S S S E. S S S
|-0-(0)-0-0-0-0-0--------|-0-(0)-0-0-0-0-0--------|
|-0-(0)-0-0-0-0-0--------|-0-(0)-0-0-0-0-0--------|
|-4-(4)-4-4-4-4-4--------|-4s=7--7-7-7-6-6--------|
|-0h=2--2-2-2-2-2--2-2-2-|-2s=5--5-5-5-5-5--5-5-5-|
|-0h=2--2-2-2-2-2--2-2-2-|-2s=5--5-5-5-5-5--5-5-5-|
|-0-(0)-0-0-0-0-0--0-0-0-|-0-(0)-0-0-0-0-0--0-0-0-|


S S E E E. S S S S S E E E. S S S
||---------------------|--------------------|
||o-----------2--2-2-2-|-----------0--0-0-0-|
||----------2-2--2-2-2-|---------2-2--2-2-2-|
||--------0-0-0--0-0-0-|-------0-0-0--0-0-0-|
||o-0-(0)-0-0-0--0-0-0-|-0-(0)-0-0-0--0-0-0-|
||--0h=2--2-2-2--2-2-2-|-0h=3--3-3-3--3-3-3-|


1.
S S S S S S E. S S S S S S S S S E. S S S
|-0-(0)-0-0-0-0-0--------|-0-(0)-0-0-0-0-0----------||
|-0-(0)-0-0-0-0-0--------|-0-(0)-0-0-0-0-0---------o||
|-4-(4)-4-4-4-4-4--------|-4s=7--7-7-7-6-6----------||
|-0--2--2-2-2-2-2--2-2-2-|-2s=5--5-5-5-5-5--5-5-5---||
|-0--2--2-2-2-2-2--2-2-2-|-2s=5--5-5-5-5-5--5-5-5--o||
|-0-(0)-0-0-0-0-0--0-0-0-|-0-(0)-0-0-0-0-0--0-0-0---||

[ Tab from: http://www.guitartabs.cc/tabs/c/city_and_colour/in_the_water_i_am_beautiful_tab_ver_2.html ]
2.
E S S S S E S S S S E S S S S E S S S S E S S S S E S S S S
|-0-0-0-0-0-0-0-0-0-0-|-0-0-0-0-0-0-0-0-0-0-|-0-0-0-0-0-0-0-0-0-0----|
|-0-0-0-0-0-0-0-0-0-0-|-0-0-0-0-0-0-0-0-0-0-|-0-0-0-0-0-0-0-0-0-0----|
|-7-7-7-7-6-6-6-6-6-6-|-6-6-6-6-6-6-6-6-6-6-|-6-6-6-6-6-6-6-6-6-6----|
|-5-5-5-5-5-5-5-5-5-5-|-5-5-5-5-5-5-5-5-5---|------------------------|
|-5-5-5-5-5-5-5-5-5-5-|---------------------|------------------------|
|-0-0-0-0-0-0-0-0-0-0-|---------------------|------------------------|


E. E S E S S S S S S S S S S E S E S
||--0--0-0-0-0-0-0-0-|-0-(0)----------------0----|
||o-0--0-0-0-0-0-0-0-|-0-(0)-----------7---(0)---|
||--4--4-4-4-4-4-4-4-|-4s=7----6h(7)-----7-------|
||--2--2-2-2-2-2-2-2-|-0-(0)-0-------7---------0-|
||o-0--0-0-0-0-0-0-0-|-2s=5--------------------0-|
||-------------------|-------------------------0-|


S E E S S S S S S S S S S S S S S S S S S S 6x
|---------------------|--------------------------------------||
|---------------------|-----------------5p0-----------------o||
|-----------0---------|---------------------(0)-(0)-(0)-(0)--||
|---------------0-----|---------0h(5)-------(0)-(0)-(0)-(0)--||
|---4-4-0-5---4---0---|-5-(5)-x-------x-----(0)-(0)-(0)-(0)-o||
|-2-2-2-------------0-|-0h=3---------------------------------||


PM------|
S S S S S S S S S S S T T S S S S S S e Q
|---------------------------|------------------|
|---------------------------|------------------|
|---------------------------|-6-----6-----6----|
|-4-----------4-------------|-5-----5-----5----|
|-4-4-4-4-4-4-5-5-5-5-5-5-5-|-5-5-5-5-5-5-5----|
|-2-2-2-2-2-2-2-2-2-2-2-2-2-|-3-3-3-3-3-3-3----|


PM------| PM| PM----------|
S S S S S S S S S S S T T S S S S S S e Q
|---------------------------|--------------------|
|---------------------------|--------------------|
|-4-----------4-----4-------|-------7-6---6------|
|-2-2-2-2-2-2-2-2-2-2-2-2-2-|-5-5-5-----7-7------|
|-2-2-2-2-2-2-2-2-2-2-2-2-2-|-5-5-5-------5------|
|---------------------------|--------------------|


PM| PM|
S S S S S S e Q S S S S S S e Q
|------------------|------------------|
|------------------|------------------|
|------------------|-6-----6-----6----|
|-4-----4-----4----|-5-----5-----5----|
|-4-4-4-4-4-4-5----|-5-5-5-5-5-5-5----|
|-2-2-2-2-2-2-2----|-3-3-3-3-3-3-3----|


S S S S S S E S S S S S S S S S S E S S S S
|-0-(0)-0-0-0-0-0-0-0-0-0-|-0-(0)-0-0-0-0-0-0-0-0-0--|
|-0-(0)-0-0-0-0-0-0-0-0-0-|-0-(0)-0-0-0-0-0-0-0-0-0--|
|-4-(4)-4-4-4-4-4-4-4-4-4-|-4s=6--6-6-6-6-6-6-6-6-6--|
|-0--2--2-2-2-2-2-2-2-2-2-|-2s=5--5-5-5-5-5-5-5-5-5--|
|-0--2--2-2-2-2-2-2-2-2-2-|-2s=5--5-5-5-5-5-5-5-5-5--|
|-0-(0)-0-0-0-0-0-0-0-0-0-|-0-(0)-0-0-0-0-0-0-0-0-0--|


S S E E E. S S S S S E E E. S S S
||---------------------|--------------------|
||o-----------2--2-2-2-|-----------0--0-0-0-|
||----------2-2--2-2-2-|---------2-2--2-2-2-|
||--------0-0-0--0-0-0-|-------0-0-0--0-0-0-|
||o-0-(0)-0-0-0--0-0-0-|-0-(0)-0-0-0--0-0-0-|
||--0h=2--2-2-2--2-2-2-|-0h=3--3-3-3--3-3-3-|


S S S S S S E. S S S S S S S S S E. S S S
|-0-(0)-0-0-0-0-0--0-0-0-|-0-(0)-0-0-0-0-0--0-0-0---||
|-0-(0)-0-0-0-0-0--0-0-0-|-0-(0)-0-0-0-0-0--0-0-0--o||
|-4-(4)-4-4-4-4-4--4-4-4-|-4s=7--7-7-7-6-6--6-6-6---||
|-0--2--2-2-2-2-2--2-2-2-|-2s=5--5-5-5-5-5--5-5-5---||
|-0--2--2-2-2-2-2--2-2-2-|-2s=5--5-5-5-5-5--5-5-5--o||
|-0-(0)-0-0-0-0-0--0-0-0-|-0-(0)-0-0-0-0-0--0-0-0---||


S S S S S S E. S S S S S S S S S E. S S S
||--0-(0)-0-0-0-0-0--0-0-0-|-0-(0)-0-0-0-0-0--0-0-0--||
||o-0-(0)-0-0-0-0-0--0-0-0-|-0-(0)-0-0-0-0-0--0-0-0-o||
||--4-(4)-4-4-4-4-4--4-4-4-|-4s=6--6-6-6-6-6--6-6-6--||
||--0--2--2-2-2-2-2--2-2-2-|-2s=5--5-5-5-5-5--5-5-5--||
||o-0--2--2-2-2-2-2--2-2-2-|-2s=5--5-5-5-5-5--5-5-5-o||
||--0-(0)-0-0-0-0-0--0-0-0-|-0-(0)-0-0-0-0-0--0-0-0--||


S S S S S S E. S S S E S S S S E S S S S
|-||--0-(0)-0-0-0-0-0--0-0-0-|-0-0-0-0-0-0-0-0-0-0----||
|-||o-0-(0)-0-0-0-0-0--0-0-0-|-3-3-3-3-3-3-3-3-3-3---o||
|-||--4-(4)-4-4-4-4-4--4-4-4-|-4-4-4-4-4-4-4-4-4-4----||
|-||--0--2--2-2-2-2-2--2-2-2-|-0-0-0-0-0-0-0-0-0-0----||
|-||o-0--2--2-2-2-2-2--2-2-2-|-2-2-2-2-2-2-2-2-2-2---o||
|-||--0-(0)-0-0-0-0-0--0-0-0-|-3-3-3-3-3-3-3-3-3-3----||


H.=H
S S S S S S E. S S S E E E E E S S H.
|-0-(0)-0-0-0-0-0--0-0-0-|-0-0-0-0-0-0-0-|-0-----*|
|-0-(0)-0-0-0-0-0--0-0-0-|-3-3-3-3-3-3-3-|-0-----*|
|-4-(4)-4-4-4-4-4--4-4-4-|-4-4-4-4-4-4-4-|-4-----*|
|-0--2--2-2-2-2-2--2-2-2-|-0-0-0-0-0-0-0-|-0-----*|
|-0--2--2-2-2-2-2--2-2-2-|-2-2-2-2-2-2-2-|-0-----*|
|-0-(0)-0-0-0-0-0--0-0-0-|-3-3-3-3-3-3-3-|-0-----*|
Comments