City And Colour - Day Old Hate Chords & Tabs

 

Day Old Hate Chords & Tabs

City And Colour Chords & Tabs

Version: 1 Type: Tab 0 ratings
1 star 2 stars 3 stars 4 stars 5 stars
comments

Day Old Hate Tab

Drop D tuning 
Capo 4

intro
[ Tab from: http://www.guitartabs.cc/tabs/c/city_and_colour/day_old_hate_tab.html ]
e|------0-2------|-2-3-2---------|--5-then-0-|
B|-----------0---|---------------|--7------3-|
G|---------------|-------0-4---4-|--7------0-|
D|---0-2-------2-|-----------2---|--0------2-|
A|---------------|---------------|--0------3-|
D|---------------|---------------|-----------|

verse
e|2------5---0--|
B|3(or 0)7---3--|
G|0------7---0--|
D|2------0---2--|
A|0------0---3--|
D|--------------|

Chorus
e|0--0--|
B|3--3--|
G|0--0--|
D|2--0--|
A|0--3--|
D|0-----|
Comments