Citizen King - Better Days Chords & Tabs

 

Better Days Chords & Tabs

Citizen King Chords & Tabs

Version: 1 Type: Bass Tab 0 ratings
1 star 2 stars 3 stars 4 stars 5 stars
comments

Better Days Bass Tab

   
BTAB  : Better days
ARTIST: Citizen King
AUTHOR: Charlie (cacaldi@capcod.net)
DATE  : 05/31/99



INTRO

G----------------------------------
D----------------------------------
A-0-0-0-0-0-0-0-0-0-0-0-0-0-0-0...-
E----------------------------------

MAIN RIFF

G----------------------
D----------------------
A--------0---0-----0--- x3
E--0-3-4---3---0h3-----

Pre chorus
[ Tab from: http://www.guitartabs.cc/tabs/c/citizen_king/better_days_btab.html ]
G-----------------------------
D-----------------------------
A-----------------------------
E--3-3-3-3-3-3-3-3-3-3-3-3-3--

CHORUS

G------------------
D--------2---------
A--0-3-4---4--0-0-- x4
E------------------

BRIDGE

G---5-5-5-5-6-5-------5-5-6-5-6------------------
D---------------6-5-6-----------6-5-7------------
A------------------------------------5-0--------- twice
E------------------------------------------------

Then play the CHORUS again a couple of times, then an open A and the main riff.


There you go...

taken from Charlie's bass tabs http://members.tripod.com/~ccaldi

Comments