Cirque Du Soleil - Ombra Chords & Tabs

 

Ombra Chords & Tabs

Cirque Du Soleil Chords & Tabs

Version: 1 Type: Tab 0 ratings
1 star 2 stars 3 stars 4 stars 5 stars
comments

Ombra Tab

   
-------------------------------------------------------------------------------
			     Ombra - Cirque du Soleil
-------------------------------------------------------------------------------
Tabbed by: Tim MizeraK
Email: ShinobiKoushaku@hotmail.com

Tuning: E
Composer: Violaine Corradi


This is played on acoustic guitar, I prefer plucking it myself. I hope it's not too
confusing to figure out the structure, just listen to the song closely and you should
be able to get it. I think this is a reasonably easy piece to play for the intermediate
guitarist or higer. So...for all you musicians, have fun!

| h  hammer-on
| p  pull-off

I
E -----------------------------------------------|
B ------------3----------3-----------3---------3-|
G -0--2-3--2-----3---2-3---0--2-3--2----3--2-3---|
D -----------------------------------------------|
A -----------------------------------------------|
E -----------------------------------------------|

II
E -----------------------------------------------|
B ------------3---------3------------3---------3-|
G ----2-3--0-----3--2-3------2-3--2-----3--2-3---|
D -1----------------------3----------------------|
A -----------------------------------------------|
E -----------------------------------------------|

repeat I

III
E ------------------------------------------------|
B ------------3---------3------1-----3--1----1----|
G -0--2-3--2-----3--2-3---0--2----2--------2---2--|
D ------------------------------------------------|
A ------------------------------------------------|
E ------------------------------------------------|

E ------------5----------------------------------|
B ----1-3--1-----1----1-3------------3---------3-|
G -0----------------2-----0--2-3--2-----3--2-3---|
D -----------------------------------------------|
A -----------------------------------------------|
E -----------------------------------------------|

repeat II
[ Tab from: http://www.guitartabs.cc/tabs/c/cirque_du_soleil/ombra_tab.html ]
IV
E ------------------------|------------------------|
B ------------3---------3-|-----------3--------3---|
G -0--2-3--2-----3--2-3---|0--2-3--2-------2-3---3-|
D ------------------------|--------------3---------|
A ------------------------|------------------------|
E ------------------------|------------------------|
(repeat second half once)

III
II
IV(without repetition of second half)
III
II

V
E ---------------------------|
B ------------1----0-1-3-(1)-|
G -0--2-3--------------------|
D ---------3-----1-----------|
A ---------------------------|
E ---------------------------|
(twice without the note in the ()[just hold the 3], once with the note in the (), once 
once with)

II
V twice with ()
III
II
IV (second half three times)
III
II
IV (second half once)
III
II
V (without the fifth time)

VI (solo)
E ---------------------------------------------|
B ---------------------------------------------|
G ---------------------------------------------|
D -6--6-5--3-5--6-5--3---6--6-5--3-5--6-5-6-3--|
A ---------------------------------------------|
E ---------------------------------------------|

E ---------------------------------------------|
B ---------------------------------------------|
G ---------------------------------------------|
D -6--6-5--3-8--6-5--3---6--6-5--3--1----------|
A ------------------------------------4--3-1-3-|
E

E ---------------------------------------------|
B ---------------------------------------------|
G ---------------------------------------------|
D -----------------------6--6-5--3-5--6-5-6-3--|
A -4-3-1-3-4-3h4p3-1-3-------------------------|
E ---------------------------------------------|

E ---------------------------------------------|
B ---------------------------------------------|
G ---------------------------------------------|
D -6--6-5--3-8--6-5--3---8--8-6--5-6--8-6--5---|
A ---------------------------------------------|
E ---------------------------------------------|

E -----------------------|
B -----------------------|
G -----------------------|
D -5-5-8-6-5-3-1---------|
A ---------------4-3-1---|
E -----------------------|

III
II
IV(second half once)
III
II
IV(second half once)
III
II
V (12 times alternating with () and without)
Comments