Circuit - Worthless Nothing Chords & Tabs

 

Worthless Nothing Chords & Tabs

Circuit Chords & Tabs

Version: 1 Type: Bass Tab 0 ratings
1 star 2 stars 3 stars 4 stars 5 stars
comments

Worthless Nothing Bass Tab

Song Title: WORTHLESS NOTHING
Artist: CIRCUIT
----------------------------------------------

  INTRO 
G:-------------------------------- 4X
D:--------------------------------
A:----11---11--------9---9--------
E:--9----9----9----7---7---7------
[ Tab from: http://www.guitartabs.cc/tabs/c/circuit/worthless_nothing_btab.html ]
  VERSE
G:-------------------------------------- 8X
D:--------------------------------------
A:--------------------------------------
E:--9-9-9-9-9-9-9-9-9--7-7-7-7-7-7-7-7-0
 
  CHOURS
G:-------------------- 4X
D:--------------------
A:--------------------
E:--0-0-0--7-7-7-5-5-5

TURN ON DISTORTION

  INTO VERSE
G:------------1X
D:------------
A:------------
E:--7^^7^^7^^7
  
  VERSE
G:----------------------------------6X
D:----------------------------------
A:----------5-5-5-0-----------------
E:--5-5-5-0---------6-6-6-0--4-4-4-0


IF YOU LIKE MAIL ME JONICA@HEVANET.COM

Submitted by:  KIERAN LYNN (JONICA@HEVANET.COM)



Comments