Circle Of Dead Children - A Wooden Heart Never Bleeds Chords & Tabs

 

A Wooden Heart Never Bleeds Chords & Tabs

Circle Of Dead Children Chords & Tabs

Version: 1 Type: Bass Tab 0 ratings
1 star 2 stars 3 stars 4 stars 5 stars
comments

A Wooden Heart Never Bleeds Bass Tab

   
-----------------------------------------------------------------------------
          A WOODEN HEART NEVER BLEEDS - Circle of Dead Children
-----------------------------------------------------------------------------
www.circleofdeadchildren.net
American Grindcore
Tabbed By : Brooks Stacks
e-mail: Brooks.stacks@sbcglobal.net

Tuning: B E A D G
[ Tab from: http://www.guitartabs.cc/tabs/c/circle_of_dead_children/a_wooden_heart_never_bleeds_btab.html ]
Beginning
G|------------------------------|
D|------------------------------|
A|------------------------------|
E|-----------5----------------5-|
B|-2-0-3-0------2-0-3-3-3-0-----|

Paranoia part
G|---------------------------------------------------------|
D|---------------------------------------------------------|
A|---------------------------------------------------------|
E|---------------------------------------------------------|
B|-3-3--5-5-5-5--3-3--5-5-5-5--3-3--5-5-5-5--3-3--5-4-5-4--|

Play until end of song.
G|-----------|
D|-----------|
A|-----------|
E|------4-2--|
B|--3-6------|


===============================================================================
Comments