Circle Jerks - When The Shit Hits The Fan Chords & Tabs

 

When The Shit Hits The Fan Chords & Tabs

Circle Jerks Chords & Tabs

Version: 1 Type: Tab 0 ratings
1 star 2 stars 3 stars 4 stars 5 stars
comments

When The Shit Hits The Fan Tab

"When The Shit Hits The Fan"
The Circle Jerks
Tabbed all up in the hizzy by: primusfan

I think I added most of those links in the bridge, but oh well, it sounds cool and it's 
to have too much than too little.

(INTRO)             (MAIN RIFF/VERSE)
E------------------|--------------------------------|
B------------------|--------------------------------|
G-9-7-6---7-6------|--9-----7-7-------9-9-----7-----|
D-------9-----9-7--|--9--9--7-7--7-7--9-9--9--7--7--|
A------------------|--7--9--5-5--7-7--7-7--9--5--7--|
E------------------|-----7-------5-5-------7-----5--|

Repeat MAIN RIFF as needed throughout the VERSE.


(CHORUS)
E--------------------|--------------------|
B--------------------|--------------------|
G--------------------|--------------------|
D--7------5------7---|--7------5-----2----|
A--7------5------7---|--7------5-----2----|
E--5------3------5---|--5------3-----0----|

[ Tab from: http://www.guitartabs.cc/tabs/c/circle_jerks/when_the_shit_hits_the_fan_tab.html ]
(BRIDGE)
E----------------------------------------------------------------------------------------|
B----------------------------------------------------------------------------------------|
G-4-4-4---------------4-4-4---------------2-2-2-------------------2-2-2------------------|
D-4-4-4-----2-2-2-----4-4-4-----2-2-2-----2-2-2-------2-2-2-------2-2-2-----2-2-2--------|
A-2-2-2-----2-2-2---0-2-2-2-----2-2-2---0-0-0-0-------2-2-2-------0-0-0-----2-2-2--------|
E-------4-2-0-0-0-4---------4-2-0-0-0-4---------3-2-0-0-0-0-0-3-4-------3-2-0-0-0-0-3-4--|

E----------------------------------------------------------------------|
B----------------------------------------------------------------------|
G-4-4-4---------------4-4-4---------------2-2-2---------2-2-2----------|
D-4-4-4-----2-2-2-----4-4-4-----2-2-2-----2-2-2--2-2-2--2-2-2--2-2-2---|
A-2-2-2-----2-2-2---0-2-2-2-----2-2-2---0-0-0-0--2-2-2--0-0-0--2-2-2---|
E-------4-2-0-0-0-4---------4-2-0-0-0-4----------0-0-0---------0-0-0---|

(SOLO)
E----------------------------|-----------------------10---------------------|---------------|
B----------------------------|------------8---8-10b--10b-(11)-10rp9p8-------|--12-12-10-----|
G----------------------------|--------7h9---9-------------------------9--9~-|-----------12~-|
D----------------------------|----------------------------------------------|---------------|
A--/7~----9-----9-----5s7----|----7~----------------------------------------|---------------|
E----------------------------|----------------------------------------------|---------------|

INTRO
VERSE
CHORUS
VERSE
CHORUS
BRIDGE
SOLO
CHORUS
BRIDGE
VERSE

FADE OUT.
Comments