Circle Jerks - I Just Want Some Skank Chords & Tabs

 

I Just Want Some Skank Chords & Tabs

Circle Jerks Chords & Tabs

Version: 1 Type: Tab 0 ratings
1 star 2 stars 3 stars 4 stars 5 stars
comments

I Just Want Some Skank Tab

the ultimate skate song

tuning-standard-EADGBe

Verse

1------------------------------|
2------------------------------|
3-7-7-8-8-7-7-9-9--------------|
4-7-7-8-8-7-7-9-9--------------| x4
5-5-5-6-6-5-5-7-7--------------|
6------------------------------|

bridge(take it away...)
[ Tab from: http://www.guitartabs.cc/tabs/c/circle_jerks/i_just_want_some_skank_tab.html ]
1------------------------------|
2------------------------------|
3----------9-9-9-9-------------|
4-77777777-9-9-9-9-------------| x2
5-77777777-7-7-7-7-------------|
6-55555555---------------------|

Chorus 1

1------------------------------|
2-5555-------------------------|
3-5555-2222--------------------|
4-5555-2222--------------------| x4
5-3333-0000--------------------|
6------------------------------|

1------------------------------|
2------------------------------|
3------------------------------|
4-7777-5-----------------------|
5-7777-5-----------------------| x4
6-5555-3-----------------------|


fpr questions-e-mail me at horny_devil183@hotmail.com

Peace
Comments