Cinderella - More Things Change Chords & Tabs

 

More Things Change Chords & Tabs

Cinderella Chords & Tabs

Version: 1 Type: Tab 0 ratings
1 star 2 stars 3 stars 4 stars 5 stars
comments

More Things Change Tab

tuning:standard
tabbed by:a crazy teenage rock and roll fan
artist:cinderella
album:heartbreak station
year:1990

key:
p=pull off
h=hammer on
/=slide up
\=slide down
^=let ring

most of this song is done isn slide guitar.

intro.
E|---------------------------------------------------------------|
B|---------------------------------------------------------------|
G|---------------------------------------------------------------|
D|---------------------------------------------------------------|
A|-12\3-0--12\3-0--12\3-0--h13-12---12\3-0--12\3-0--0--5\3-0-3/5-|
E|---------------------------------------------------------------|
play this twice

E|--------------------------------------------------------------|
B|--------------------------------------------------------------|
G|--------------------------------------------------------------|
D|-2--2-2-5-2-5-2-5-2---2-5-2-5-2-5-2---2-5-2-5-2-5-2---5\2\0-7-|
A|-0--0-0-3-0-3-0-3-0---0-3-0-3-0-3-0---0-3-0-3-0-3-0---3\2\0-5-|
E|--------------------------------------------------------------|
play this twice

verse
E|-------------------------------|
B|-------------------------------|
G|-------------------------------|
D|-5-4-2-7--------5-4-2-7--------|
A|-3-2-0-5--------3-2-0-5--------|
E|-------------------------------|

E|--------------------------------------------------|
B|--------------------------------------------------|
G|--------------------------------------------------|
D|-2--2-5-2-5-2-5-2---2-5-2-5-2-5-2---2-5-2-5-2-5-2-|
A|-0--0-3-0-3-0-3-0---0-3-0-3-0-3-0---0-3-0-3-0-3-0-|
E|--------------------------------------------------|
play this twice

pre-chorus
E|-------------------------------------|
B|-------------------------------------|
G|-9^^^^^^^^^^^^^^^^-7^^^^^^^^^^^^^^^^-|
D|-9^^^^^^^^^^^^^^^^-7^^^^^^^^^^^^^^^^-|
A|-7^^^^^^^^^^^^^^^^-5^^^^^^^^^^^^^^^^-|
E|-------------------------------------|
[ Tab from: http://www.guitartabs.cc/tabs/c/cinderella/more_things_change_tab.html ]
chorus
E|-------------------------------------------|
B|-------------------------------------------|
G|-7^^^-2^^^-2^^^-4^^^---7^^^-2^^^-5^^^-7^^^-|
D|-7^^^-2^^^-2^^^-4^^^---7^^^-2^^^-5^^^-7^^^-|
A|-5^^^-0^^^-0^^^-2^^^---5^^^-0^^^-3^^^-5^^^-|
E|-------------------------------------------|

solo

i just did what i could with the solo, there is probobly a lot of wrong notes in it but
if you tink with it a little bit you might get the idea of how it is actually played.

E|-----------------------------------------------------------------|
B|-8/10--------17p18-13----10-13p12-13p12-13p12-13p12----12\11\8\5-|
G|-----------------------------------------------------------------|
D|-----------------------------------------------------------------|
A|-----------------------------------------------------------------|
E|-----------------------------------------------------------------|

E|-8-8-8-8-8-8-------------------------------------------------|
B|-8-8-8-8-8-8-8\4\1--------4/8/10-----------------------------|
G|-------------------------------------------------------------|
D|-------------------------------------------------------------|
A|----------------------------------------12\3-0--------12\3-0-|
E|-------------------------------------------------------------|

after that reapeat the pre-chorus and the chorus again

lyrics:
woke up this morning on the wrong side of bed
i got this feeling like a trains running through my head
turned on the radio to the same old song
some big mouth trying to tell us
where the world went wrong

but all this talk of peace and love
its only for the news
cause everytime you trust someone
you end up getting screwed

chorus:
the more things change
the more they stay the same
everyones your brother till you
turn the other way
the more things change
the more they stay the same
all we needs a miracle
to take us all away from the pain

came to this morning
i was feeling mighty used
picked up the telephone
but all i gots a major attitude
turned on the tv to the same old news
everybody thinks they got the answer
to the same old blues

like a hot smokin pistol
on a saturday night
you gotta go for the throat
you gotta fight for your life

chorus

take me away

like a hot smokin pistol
on a saturday night
you gotta go for the throat
you gotta fight for your life

chorus 2x

the more things change (reapeat)

KEEP ON ROCKIN ON!!!!!!!!!!
Comments