Cinderella - Bad Seamstress Blues Chords & Tabs

 

Bad Seamstress Blues Chords & Tabs

Cinderella Chords & Tabs

Version: 1 Type: Tab 0 ratings
1 star 2 stars 3 stars 4 stars 5 stars
comments

Bad Seamstress Blues Tab

                                Cinderella
                           "Bad Seamstress Blue's"



             I dont submit tab very often but had seen this requested several 
             times over the past year so here it is.    Standard tuning!



 
(Intro)                                     "harmonica tabbed for guitar"
e:--------3~-------------------|----------|-------------------------------|
B:--3-/5------4/5--------/3~---|--3-------|--2-h3-p2-h3p2h3p2h3p2h3p2h3~--|
G:------------------5--0-------|----4-0---|-------------------------------|
D:-----------------------------|----------|-------------------------------|
A:-----------------------------|----------|-------------------------------|
E:-----------------------------|----------|-------------------------------|

                                           harmonica:
e:--------3~------------------|-----------|----------------------|-------------|
B:--3-/5-----4/5--------/3~---|-3---------|--/5-6p5h6p5h6-5-3~---|-------------|
G:-----------------5--0-------|---4-0-----|----------------------|---------/2~-|
D:----------------------------|-------0---|----------------------|--0-/4-0-----|
A:----------------------------|-----------|----------------------|-------------|
E:----------------------------|-----------|----------------------|-------------|
[ Tab from: http://www.guitartabs.cc/tabs/c/cinderella/bad_seamstress_blues_tab.html ]
                                                 harmonica:
e:--------0---------|--------------|------------|-------------------------|
B:--3------1----3---|--------------|------------|--2-h3-p2-h3p2h3p2h3~----|
G:-----0-----0------|--4/2---0--/2-|--0---2-0---|-------------------------|
D:------------------|------0---0---|----0-----0-|-------------------------|
A:------------------|--------------|------------|-------------------------|
E:------------------|--------------|------------|-------------------------|
                                             
e:-----------------|-----------------|-----------------|------------------|
B:-----------------|-----------------|-----------------|------------------|
G:--0-5p0-3p0-3p0--|--0-5p0-3p0-3p0--|--0-5p0-3p0-3p0--|--0-5p0-3p0-3p0---|
D:-----------------|-----------------|-----------------|------------------|
A:-----------------|-----------------|-----------------|------------------|
E:-----------------|-----------------|-----------------|------------------|
                                                      Alright.

e:-----------------|-----------------|-----------------|
B:-----------------|-----------------|-----------------|
G:--0-5p0-3p0-3p0--|--0-5p0-3p0-3p0--|--0-5p0-3p0-3p0--|
D:-----------------|-----------------|-----------------|
A:-----------------|-----------------|-----------------|
E:-----------------|-----------------|-----------------|
 Lookin' on back when I was young. I tried to sing it but my 

e:------------------------------|----------------------------------------|
B:------------------------------|----------------------------------------|
G:------0-5p0-3p0-3p0--0-/3p0-5-|-----------------0-3-5-------0-3p0-3p0--|
D:------------------------------|----------------------------------------|
A:------------------------------|----------------------------------------|
E:------------------------------|----------------------------------------|
 song had been sung and now I   ain't got no worries,  ain't got no one

e:---------|-------------------|----------|--------------------|
B:---------|-------------------|----------|--------------------|
G:---------|-0-5p0-3p0-3p0h3p0-|--0-3p0---|------0-3-6h7-------|
D:---------|-------------------|----------|--------------------|
A:---------|-------------------|----------|--------------------|
E:---------|-------------------|----------|--------------------|
 to call my own.            Ah no.         I said but when I get just

                                           (4/4 drum beat)
e:------------------|---------------------------------------|
B:---3---3-----3----|---------------------------------------|
G:-----5---0-3---5--|----------------------0-0-5p0-3p0-3p0--|
D:------------------|---------------------------------------|
A:------------------|---------------------------------------|
E:------------------|---------------------------------------|
 a little bit older, all I got had come undone.

e:------------------| Goes into  "Falling Apart At The Seams"
B:------------------|    
G:-0-5p0-3p0-3p0----|
D:------------------|
A:------------------|
E:------------------|
    Let's go boys.
Comments