Chynna Phillips - I Live For You Chords & Tabs

 

I Live For You Chords & Tabs

Chynna Phillips Chords & Tabs

Version: 1 Type: Bass Tab 0 ratings
1 star 2 stars 3 stars 4 stars 5 stars
comments

I Live For You Bass Tab

CHYNNA PHILLIPS - "I Live For You" - Bass Tab

Common Time(4/4)
Drop D Tuning(EADG)

VERSE/CHORUS:
G|------------------------|------------------------|
D|*-----------------------|-----------------------*|
A|*-2---0-2-----------0---|---------------------0-*|
D|------------4-2-2-4---2-|-4---2-4---2-2-4-2-4----|
    1 & a 2 & a 3 & 4 & a   1 & a 2 & a 3 & 4 & a


PRE-CHORUS:
                   (x4)
G|---------------------|-------------------|---------|
D|*-------------------*|-------------------|---------|
A|*-.-.---------------*|-------------------|---------|
D|--4-4-4---2-2-2-2-2--|-0-0-0---0-0-0-0-0-|-0-------|
    1 & 2 & a 3 & 4 &    1 & 2 & a 3 & 4 &   1 2 3 4
[ Tab from: http://www.guitartabs.cc/tabs/c/chynna_phillips/i_live_for_you_btab.html ]
INTERLUDE:
G|------------------------|------------------------|
D|*-----------------------|-----------------------*|
A|*-4---2-4-----------2---|---------------------2-*| (x2)
D|------------6-4-4-6---4-|-6---4-6---4-4-6-4-6----|
    1 & a 2 & a 3 & 4 & a   1 & a 2 & a 3 & 4 & a

G|---------------------|---------------------|-------------------|
D|---------------------|---------------------|-------------------|
A|-.-.-------.-.-.-.---|-------------.-.-.-.-|-.-.-------.-.-.-.-|
D|-2-2-2---4-4-4-4-4-4-|-6---4-6---4-1-1-1-1-|-2-2-2---2-2-2-2-2-|
   1 & 2 & a 3 & 4 & a   1 & a 2 & a 3 & 4 &   1 & 2 & a 3 & 4 &

G|-------------------|---------|
D|-------------------|---------|
A|-.-.-------.-.-.-.-|---------|
D|-4-4-4---4-4-4-4-4-|-4-------|
   1 & 2 & a 3 & 4 &   1 2 3 4

END:
G|------------------------|------------------------|
D|*-----------------------|-----------------------*|
A|*-4---2-4-----------2---|---------------------2-*| (x10 to fade
D|------------6-4-4-6---4-|-6---4-6---4-4-6-4-6----|      out)
    1 & a 2 & a 3 & 4 & a   1 & a 2 & a 3 & 4 & a

By: Johari Taylor
E-mail: viking@powerup.com.au
More Bass Tabs: http://www.powerup.com.au/~viking/basstab.htm
Comments