Chuck Berry - Roll Over Beethoven Chords & Tabs

 

Roll Over Beethoven Chords & Tabs

Chuck Berry Chords & Tabs

Version: 1 Type: Bass Tab 0 ratings
1 star 2 stars 3 stars 4 stars 5 stars
comments

Roll Over Beethoven Bass Tab

   
Tabbed by Pablo Vadillo a.k.a. LG That Guy
Standard Tuning : E A D G 	

|----------------------------------|----------------------------------|
|---------------------0---2---0----|---------------------0---2---0----|
|-------------2--------------------|-------------2--------------------|
|-3---3---3-------3----------------|-3---3---3-------3----------------|

   
|-------------------------4---7----|---------------------2---4---2----|
|---------------------7------------|-------------4--------------------|
|-5---5---5---5---5----------------|-5---5---5-------5----------------|
|----------------------------------|----------------------------------|


||---------------------------------|----------------------------------|
|*--------------------2---4---2----|---------------------2---4---2----|
|*0---0---0---4---0----------------|-0---0---0---4---0----------------|
||---------------------------------|----------------------------------|


||--------------------2---4---2----|---------------------2---4---2---||
|*------------4--------------------|-------------4-------------------*|
|*5---5---5-------5----------------|-5---5---5-------5---------------*|
||---------------------------------|---------------------------------||

   
|---------------------2---4---2---||---------------------------------||
|-------------4-------------------*|---------------------0---2---0---*|
|-5---5---5-------5---------------*|-------------2-------------------*|
|---------------------------------||-3---3---3-------3---------------||

   
|----------------------------------|-----------------------------2----|
|---------------------2---4---2----|---------------------2---4--------|
|-0---0---0---4---0----------------|-0---0---0---0---0----------------|
|----------------------------------|----------------------------------|

   
|-------------------------4---7----|-------------------------4---7----|
|---------------------7------------|---------------------7------------|
|-5---5---5---5---5----------------|-5---5---5---5---5----------------|
|----------------------------------|----------------------------------|

   
|-------------------------4---7----|----------------------------------|
|---------------------7------------|---------------------0---2---0----|
|-5---5---5---5---5----------------|-------------2--------------------|
|----------------------------------|-3---3---3-------3----------------|

   
|-----------------------------0----|----------------------------------|
|---------------------0---2--------|---------------------0---2---0----|
|-------------2--------------------|-------------2--------------------|
|-3---3---3-------3----------------|-3---3---3-------3----------------|

   
|-----------------------------2----|----------------------------------|
|---------------------2---4--------|---------------------2---4---2----|
|-0---0---0---4---0----------------|-0---0---0---4---0----------------|
|----------------------------------|----------------------------------|
[ Tab from: http://www.guitartabs.cc/tabs/c/chuck_berry/roll_over_beethoven_btab.html ]
   
|-------------------------4---7----|---------------------2---4---2----|
|-------------4-------7------------|-------------4--------------------|
|-5---5---5-------5----------------|-5---5---5-------5----------------|
|----------------------------------|----------------------------------|

   |       |       |       |          |       |       |       |
|-------------------------4---7----|-----------------------------2----|
|---------------------7------------|---------------------2---4--------|
|-5---5---5---5---5----------------|-0---0---0---4---0----------------|
|----------------------------------|----------------------------------|

   |       |       |       |          |       |       |       |
|-----------------------------2----|-------------------------4---7----|
|---------------------2---4--------|-------------4-------7------------|
|-0---0---0---4---0----------------|-5---5---5-------5----------------|
|----------------------------------|----------------------------------|

   |       |       |       |          |       |       |       |
|-----------------------------0----|----------------------------------|
|---------------------0---2--------|---------------------2---4---2----|
|-------------2--------------------|-0---0---0---4---0----------------|
|-3---3---3-------3----------------|----------------------------------|

   |       |       |       |          |       |       |       |
|----------------------------------|-----------------------------0----|
|---------------------0---2---0----|---------------------0---2--------|
|-------------2--------------------|-------------2--------------------|
|-3---3---3-------3----------------|-3---3---3-------3----------------|

   |       |       |       |          |       |       |       |
|----------------------------------|-----------------------------2----|
|---------------------2---4---2----|---------------------2---4--------|
|-0---0---0---4---0----------------|-0---0---0---4---0----------------|
|----------------------------------|----------------------------------|

   |       |       |       |          |       |       |       |
|-----------------------------0----|-------------------------4---7----|
|---------------------0---2--------|---------------------7------------|
|-------------2--------------------|-5---5---5---5---5----------------|
|-3---3---3-------3----------------|----------------------------------|

   |       |       |       |          |       |       |       |       |    |
|----------------------------------|-------------------------------------------|
|---------------------0---2---0----|---------------------2---4---2-------------|
|-------------2--------------------|-0-------0---4---0---------------0-----4---|
|-3---3---3-------3----------------|-----2-------------------------------------|

   |       |       |       |          |       |       |       |
|---------------------2---4---2----|----------------------------------|
|-------------4--------------------|-0--------------------------------|
|-----5---5-------5----------------|----------------------------------|
|-5--------------------------------|----------------------------------|
Comments